  0
SECTION
  2
HEADER
  9
$ACADVER
  1
AC1032
  9
$ACADMAINTVER
 90
       55
  9
$DWGCODEPAGE
  3
ANSI_1252
  9
$LASTSAVEDBY
  1
Administrator
  9
$REQUIREDVERSIONS
160
                 0
  9
$INSBASE
 10
0.0
 20
0.0
 30
0.0
  9
$EXTMIN
 10
0.8668738192505426
 20
1.295592934259747
 30
0.0
  9
$EXTMAX
 10
29.78670154012631
 20
34.07037282037264
 30
0.0
  9
$LIMMIN
 10
0.0
 20
0.0
  9
$LIMMAX
 10
16.0
 20
10.0
  9
$ORTHOMODE
 70
     1
  9
$REGENMODE
 70
     0
  9
$FILLMODE
 70
     1
  9
$QTEXTMODE
 70
     0
  9
$MIRRTEXT
 70
     1
  9
$LTSCALE
 40
0.5
  9
$ATTMODE
 70
     1
  9
$TEXTSIZE
 40
0.2
  9
$TRACEWID
 40
0.05
  9
$TEXTSTYLE
  7
ROMANS
  9
$CLAYER
  8
0
  9
$CELTYPE
  6
ByLayer
  9
$CECOLOR
 62
   256
  9
$CELTSCALE
 40
1.0
  9
$DISPSILH
 70
     0
  9
$DIMSCALE
 40
2.0
  9
$DIMASZ
 40
0.045
  9
$DIMEXO
 40
0.04
  9
$DIMDLI
 40
0.38
  9
$DIMRND
 40
0.001
  9
$DIMDLE
 40
0.0
  9
$DIMEXE
 40
0.04
  9
$DIMTP
 40
0.0
  9
$DIMTM
 40
0.0
  9
$DIMTXT
 40
0.045
  9
$DIMCEN
 40
0.0
  9
$DIMTSZ
 40
0.0
  9
$DIMTOL
 70
     0
  9
$DIMLIM
 70
     0
  9
$DIMTIH
 70
     1
  9
$DIMTOH
 70
     1
  9
$DIMSE1
 70
     0
  9
$DIMSE2
 70
     0
  9
$DIMTAD
 70
     0
  9
$DIMZIN
 70
     0
  9
$DIMBLK
  1

  9
$DIMASO
 70
     1
  9
$DIMSHO
 70
     1
  9
$DIMPOST
  1

  9
$DIMAPOST
  1

  9
$DIMALT
 70
     0
  9
$DIMALTD
 70
     2
  9
$DIMALTF
 40
25.4
  9
$DIMLFAC
 40
1.0
  9
$DIMTOFL
 70
     0
  9
$DIMTVP
 40
0.0
  9
$DIMTIX
 70
     0
  9
$DIMSOXD
 70
     0
  9
$DIMSAH
 70
     0
  9
$DIMBLK1
  1

  9
$DIMBLK2
  1

  9
$DIMSTYLE
  2
Standard
  9
$DIMCLRD
 70
     0
  9
$DIMCLRE
 70
     0
  9
$DIMCLRT
 70
     0
  9
$DIMTFAC
 40
0.4444444444444445
  9
$DIMGAP
 40
0.045
  9
$DIMJUST
 70
     0
  9
$DIMSD1
 70
     0
  9
$DIMSD2
 70
     0
  9
$DIMTOLJ
 70
     1
  9
$DIMTZIN
 70
     0
  9
$DIMALTZ
 70
     0
  9
$DIMALTTZ
 70
     0
  9
$DIMUPT
 70
     0
  9
$DIMDEC
 70
     3
  9
$DIMTDEC
 70
     3
  9
$DIMALTU
 70
     2
  9
$DIMALTTD
 70
     2
  9
$DIMTXSTY
  7
STANDARD
  9
$DIMAUNIT
 70
     0
  9
$DIMADEC
 70
     2
  9
$DIMALTRND
 40
0.0
  9
$DIMAZIN
 70
     0
  9
$DIMDSEP
 70
    46
  9
$DIMATFIT
 70
     3
  9
$DIMFRAC
 70
     0
  9
$DIMLDRBLK
  1

  9
$DIMLUNIT
 70
     2
  9
$DIMLWD
 70
    -2
  9
$DIMLWE
 70
    -2
  9
$DIMTMOVE
 70
     2
  9
$DIMFXL
 40
1.0
  9
$DIMFXLON
 70
     0
  9
$DIMJOGANG
 40
0.7853981633974483
  9
$DIMTFILL
 70
     0
  9
$DIMTFILLCLR
 70
     0
  9
$DIMARCSYM
 70
     0
  9
$DIMLTYPE
  6

  9
$DIMLTEX1
  6

  9
$DIMLTEX2
  6

  9
$DIMTXTDIRECTION
 70
     0
  9
$LUNITS
 70
     2
  9
$LUPREC
 70
     3
  9
$SKETCHINC
 40
0.1
  9
$FILLETRAD
 40
0.0
  9
$AUNITS
 70
     0
  9
$AUPREC
 70
     2
  9
$MENU
  1
TB
  9
$ELEVATION
 40
0.0
  9
$PELEVATION
 40
0.0
  9
$THICKNESS
 40
0.0
  9
$LIMCHECK
 70
     0
  9
$CHAMFERA
 40
0.0
  9
$CHAMFERB
 40
0.0
  9
$CHAMFERC
 40
0.0
  9
$CHAMFERD
 40
0.0
  9
$SKPOLY
 70
     0
  9
$TDCREATE
 40
2449352.564791667
  9
$TDUCREATE
 40
2449352.773125000
  9
$TDUPDATE
 40
2459264.531678241
  9
$TDUUPDATE
 40
2459264.740011574
  9
$TDINDWG
 40
0.3091096065
  9
$TDUSRTIMER
 40
0.3091096065
  9
$USRTIMER
 70
     1
  9
$ANGBASE
 50
0.0
  9
$ANGDIR
 70
     0
  9
$PDMODE
 70
     0
  9
$PDSIZE
 40
0.0
  9
$PLINEWID
 40
0.0
  9
$SPLFRAME
 70
     0
  9
$SPLINETYPE
 70
     6
  9
$SPLINESEGS
 70
     8
  9
$HANDSEED
  5
EA90DCF131A8F626
  9
$SURFTAB1
 70
     6
  9
$SURFTAB2
 70
     6
  9
$SURFTYPE
 70
     6
  9
$SURFU
 70
     6
  9
$SURFV
 70
     6
  9
$UCSBASE
  2

  9
$UCSNAME
  2

  9
$UCSORG
 10
0.0
 20
0.0
 30
0.0
  9
$UCSXDIR
 10
1.0
 20
0.0
 30
0.0
  9
$UCSYDIR
 10
0.0
 20
1.0
 30
0.0
  9
$UCSORTHOREF
  2

  9
$UCSORTHOVIEW
 70
     0
  9
$UCSORGTOP
 10
0.0
 20
0.0
 30
0.0
  9
$UCSORGBOTTOM
 10
0.0
 20
0.0
 30
0.0
  9
$UCSORGLEFT
 10
0.0
 20
0.0
 30
0.0
  9
$UCSORGRIGHT
 10
0.0
 20
0.0
 30
0.0
  9
$UCSORGFRONT
 10
0.0
 20
0.0
 30
0.0
  9
$UCSORGBACK
 10
0.0
 20
0.0
 30
0.0
  9
$PUCSBASE
  2

  9
$PUCSNAME
  2

  9
$PUCSORG
 10
0.0
 20
0.0
 30
0.0
  9
$PUCSXDIR
 10
1.0
 20
0.0
 30
0.0
  9
$PUCSYDIR
 10
0.0
 20
1.0
 30
0.0
  9
$PUCSORTHOREF
  2

  9
$PUCSORTHOVIEW
 70
     0
  9
$PUCSORGTOP
 10
0.0
 20
0.0
 30
0.0
  9
$PUCSORGBOTTOM
 10
0.0
 20
0.0
 30
0.0
  9
$PUCSORGLEFT
 10
0.0
 20
0.0
 30
0.0
  9
$PUCSORGRIGHT
 10
0.0
 20
0.0
 30
0.0
  9
$PUCSORGFRONT
 10
0.0
 20
0.0
 30
0.0
  9
$PUCSORGBACK
 10
0.0
 20
0.0
 30
0.0
  9
$USERI1
 70
     0
  9
$USERI2
 70
     0
  9
$USERI3
 70
     0
  9
$USERI4
 70
     0
  9
$USERI5
 70
     0
  9
$USERR1
 40
0.0
  9
$USERR2
 40
0.0
  9
$USERR3
 40
0.0
  9
$USERR4
 40
0.0
  9
$USERR5
 40
0.0
  9
$WORLDVIEW
 70
     1
  9
$SHADEDGE
 70
     3
  9
$SHADEDIF
 70
    70
  9
$TILEMODE
 70
     1
  9
$MAXACTVP
 70
    16
  9
$PINSBASE
 10
0.0
 20
0.0
 30
0.0
  9
$PLIMCHECK
 70
     0
  9
$PEXTMIN
 10
1.000000000000000E+20
 20
1.000000000000000E+20
 30
1.000000000000000E+20
  9
$PEXTMAX
 10
-1.000000000000000E+20
 20
-1.000000000000000E+20
 30
-1.000000000000000E+20
  9
$PLIMMIN
 10
0.0
 20
0.0
  9
$PLIMMAX
 10
12.0
 20
9.0
  9
$UNITMODE
 70
     0
  9
$VISRETAIN
 70
     0
  9
$PLINEGEN
 70
     0
  9
$PSLTSCALE
 70
     1
  9
$TREEDEPTH
 70
  3020
  9
$CMLSTYLE
  2
Standard
  9
$CMLJUST
 70
     0
  9
$CMLSCALE
 40
1.0
  9
$PROXYGRAPHICS
 70
     1
  9
$MEASUREMENT
 70
     0
  9
$CELWEIGHT
370
    -1
  9
$ENDCAPS
280
     0
  9
$JOINSTYLE
280
     0
  9
$LWDISPLAY
290
     0
  9
$INSUNITS
 70
     0
  9
$HYPERLINKBASE
  1

  9
$STYLESHEET
  1

  9
$XEDIT
290
     1
  9
$CEPSNTYPE
380
     0
  9
$PSTYLEMODE
290
     1
  9
$FINGERPRINTGUID
  2
{FAFE088A-7F0A-C84B-9684-B735BC59802E}
  9
$VERSIONGUID
  2
{94AC6815-83D9-2246-8777-7C9711A5FCDA}
  9
$EXTNAMES
290
     1
  9
$PSVPSCALE
 40
0.0
  9
$OLESTARTUP
290
     0
  9
$SORTENTS
280
   127
  9
$INDEXCTL
280
     0
  9
$HIDETEXT
280
     1
  9
$XCLIPFRAME
280
     2
  9
$HALOGAP
280
     0
  9
$OBSCOLOR
 70
   257
  9
$OBSLTYPE
280
     0
  9
$INTERSECTIONDISPLAY
280
     0
  9
$INTERSECTIONCOLOR
 70
   257
  9
$DIMASSOC
280
     2
  9
$PROJECTNAME
  1

  9
$CAMERADISPLAY
290
     0
  9
$LENSLENGTH
 40
50.0
  9
$CAMERAHEIGHT
 40
0.0
  9
$STEPSPERSEC
 40
2.0
  9
$STEPSIZE
 40
6.0
  9
$3DDWFPREC
 40
2.0
  9
$PSOLWIDTH
 40
0.25
  9
$PSOLHEIGHT
 40
4.0
  9
$LOFTANG1
 40
1.570796326794896
  9
$LOFTANG2
 40
1.570796326794896
  9
$LOFTMAG1
 40
0.0
  9
$LOFTMAG2
 40
0.0
  9
$LOFTPARAM
 70
     7
  9
$LOFTNORMALS
280
     1
  9
$LATITUDE
 40
37.795
  9
$LONGITUDE
 40
-122.394
  9
$NORTHDIRECTION
 40
0.0
  9
$TIMEZONE
 70
 -8000
  9
$LIGHTGLYPHDISPLAY
280
     1
  9
$TILEMODELIGHTSYNCH
280
     1
  9
$CMATERIAL
347
3858DFB861C84D37
  9
$SOLIDHIST
280
     0
  9
$SHOWHIST
280
     1
  9
$DWFFRAME
280
     2
  9
$DGNFRAME
280
     0
  9
$REALWORLDSCALE
290
     1
  9
$INTERFERECOLOR
 62
     1
  9
$INTERFEREOBJVS
345
3858DFB861C84D59
  9
$INTERFEREVPVS
346
3858DFB861C84D56
  9
$CSHADOW
280
     0
  9
$SHADOWPLANELOCATION
 40
0.0
  0
ENDSEC
  0
SECTION
  2
CLASSES
  0
CLASS
  1
ACDBDICTIONARYWDFLT
  2
AcDbDictionaryWithDefault
  3
ObjectDBX Classes
 90
        0
 91
        1
280
     0
281
     0
  0
CLASS
  1
MATERIAL
  2
AcDbMaterial
  3
ObjectDBX Classes
 90
     1153
 91
        3
280
     0
281
     0
  0
CLASS
  1
VISUALSTYLE
  2
AcDbVisualStyle
  3
ObjectDBX Classes
 90
     4095
 91
       24
280
     0
281
     0
  0
CLASS
  1
SCALE
  2
AcDbScale
  3
ObjectDBX Classes
 90
     1153
 91
       17
280
     0
281
     0
  0
CLASS
  1
TABLESTYLE
  2
AcDbTableStyle
  3
ObjectDBX Classes
 90
     4095
 91
        1
280
     0
281
     0
  0
CLASS
  1
MLEADERSTYLE
  2
AcDbMLeaderStyle
  3
ACDB_MLEADERSTYLE_CLASS
 90
     4095
 91
        1
280
     0
281
     0
  0
CLASS
  1
ACDBSECTIONVIEWSTYLE
  2
AcDbSectionViewStyle
  3
ObjectDBX Classes
 90
     1025
 91
        1
280
     0
281
     0
  0
CLASS
  1
ACDBDETAILVIEWSTYLE
  2
AcDbDetailViewStyle
  3
ObjectDBX Classes
 90
     1025
 91
        1
280
     0
281
     0
  0
CLASS
  1
DICTIONARYVAR
  2
AcDbDictionaryVar
  3
ObjectDBX Classes
 90
        0
 91
        5
280
     0
281
     0
  0
CLASS
  1
CELLSTYLEMAP
  2
AcDbCellStyleMap
  3
ObjectDBX Classes
 90
     1152
 91
        1
280
     0
281
     0
  0
ENDSEC
  0
SECTION
  2
TABLES
  0
TABLE
  2
VPORT
  5
3858DFB861C84D2E
330
0
100
AcDbSymbolTable
 70
     2
  0
VPORT
  5
3858DFB861C84DCF
330
3858DFB861C84D2E
100
AcDbSymbolTableRecord
100
AcDbViewportTableRecord
  2
*ACTIVE
 70
     0
 10
0.0
 20
0.0
 11
1.0
 21
1.0
 12
41.89612313930235
 22
18.27360868556335
 13
0.0
 23
0.0
 14
1.0
 24
1.0
 15
0.0
 25
0.0
 16
0.0
 26
0.0
 36
1.0
 17
0.0
 27
0.0
 37
0.0
 40
36.55506323220433
 41
2.292712066905615
 42
50.0
 43
0.0
 44
0.0
 50
0.0
 51
0.0
 71
     0
 72
 20000
 73
     1
 74
     3
 75
     0
 76
     0
 77
     0
 78
     0
281
     0
 65
     1
110
0.0
120
0.0
130
0.0
111
1.0
121
0.0
131
0.0
112
0.0
122
1.0
132
0.0
 79
     0
146
0.0
348
3858DFB861C84D55
 60
     3
 61
     5
292
     1
282
     0
141
0.0
142
0.0
 63
   250
421
  3355443
1001
ACAD_NAV_VCDISPLAY
1070
     3
  0
ENDTAB
  0
TABLE
  2
LTYPE
  5
3858DFB861C84D2B
330
0
100
AcDbSymbolTable
 70
     9
  0
LTYPE
  5
3858DFB861C84D80
330
3858DFB861C84D2B
100
AcDbSymbolTableRecord
100
AcDbLinetypeTableRecord
  2
ByBlock
 70
     0
  3

 72
    65
 73
     0
 40
0.0
  0
LTYPE
  5
3858DFB861C84D81
330
3858DFB861C84D2B
100
AcDbSymbolTableRecord
100
AcDbLinetypeTableRecord
  2
ByLayer
 70
     0
  3

 72
    65
 73
     0
 40
0.0
  0
LTYPE
  5
3858DFB861C84D82
330
3858DFB861C84D2B
100
AcDbSymbolTableRecord
100
AcDbLinetypeTableRecord
  2
CONTINUOUS
 70
     0
  3
Solid line
 72
    65
 73
     0
 40
0.0
  0
LTYPE
  5
3858DFB861C84DC5
330
3858DFB861C84D2B
100
AcDbSymbolTableRecord
100
AcDbLinetypeTableRecord
  2
DASHED
 70
     0
  3
__ __ __ __ __ __ __ __ __ __ __ __ __ __ __
 72
    65
 73
     2
 40
0.75
 49
0.5
 74
     0
 49
-0.25
 74
     0
  0
LTYPE
  5
3858DFB861C84DC6
330
3858DFB861C84D2B
100
AcDbSymbolTableRecord
100
AcDbLinetypeTableRecord
  2
CENTER
 70
     0
  3
____ _ ____ _ ____ _ ____ _ ____ _ ____ _ ____
 72
    65
 73
     4
 40
2.0
 49
1.25
 74
     0
 49
-0.25
 74
     0
 49
0.25
 74
     0
 49
-0.25
 74
     0
  0
LTYPE
  5
3858DFB861C84DC7
330
3858DFB861C84D2B
100
AcDbSymbolTableRecord
100
AcDbLinetypeTableRecord
  2
PHANTOM
 70
     0
  3
_____ _ _ _____ _ _ _____ _ _ _____ _ _ ____
 72
    65
 73
     6
 40
2.5
 49
1.25
 74
     0
 49
-0.25
 74
     0
 49
0.25
 74
     0
 49
-0.25
 74
     0
 49
0.25
 74
     0
 49
-0.25
 74
     0
  0
LTYPE
  5
3858DFB861C84DC8
330
3858DFB861C84D2B
100
AcDbSymbolTableRecord
100
AcDbLinetypeTableRecord
  2
DOT
 70
     0
  3
...............................................
 72
    65
 73
     2
 40
0.25
 49
0.0
 74
     0
 49
-0.25
 74
     0
  0
LTYPE
  5
3858DFB861C84DC9
330
3858DFB861C84D2B
100
AcDbSymbolTableRecord
100
AcDbLinetypeTableRecord
  2
DASHDOT
 70
     0
  3
__ . __ . __ . __ . __ . __ . __ . __ . __ . __
 72
    65
 73
     4
 40
1.0
 49
0.5
 74
     0
 49
-0.25
 74
     0
 49
0.0
 74
     0
 49
-0.25
 74
     0
  0
LTYPE
  5
3858DFB861C84DCA
330
3858DFB861C84D2B
100
AcDbSymbolTableRecord
100
AcDbLinetypeTableRecord
  2
BORDER
 70
     0
  3
__ __ . __ __ . __ __ . __ __ . __ __ . __ __
 72
    65
 73
     6
 40
1.75
 49
0.5
 74
     0
 49
-0.25
 74
     0
 49
0.5
 74
     0
 49
-0.25
 74
     0
 49
0.0
 74
     0
 49
-0.25
 74
     0
  0
LTYPE
  5
3858DFB861C84DCB
330
3858DFB861C84D2B
100
AcDbSymbolTableRecord
100
AcDbLinetypeTableRecord
  2
DIVIDE
 70
     0
  3
__ . . __ . . __ . . __ . . __ . . __ . . __
 72
    65
 73
     6
 40
1.25
 49
0.5
 74
     0
 49
-0.25
 74
     0
 49
0.0
 74
     0
 49
-0.25
 74
     0
 49
0.0
 74
     0
 49
-0.25
 74
     0
  0
LTYPE
  5
3858DFB861C84DCC
330
3858DFB861C84D2B
100
AcDbSymbolTableRecord
100
AcDbLinetypeTableRecord
  2
HIDDEN
 70
     0
  3
_ _ _ _ _ _ _ _ _ _ _ _ _ _ _ _ _ _ _ _ _ _ _
 72
    65
 73
     2
 40
0.375
 49
0.25
 74
     0
 49
-0.125
 74
     0
  0
ENDTAB
  0
TABLE
  2
LAYER
  5
3858DFB861C84D28
330
0
100
AcDbSymbolTable
 70
    20
  0
LAYER
  5
3858DFB861C84D7A
330
3858DFB861C84D28
100
AcDbSymbolTableRecord
100
AcDbLayerTableRecord
  2
0
 70
     0
 62
    31
  6
CONTINUOUS
370
    -3
390
3858DFB861C84D35
347
3858DFB861C84D47
348
0
  0
LAYER
  5
3858DFB861C84DD1
330
3858DFB861C84D28
100
AcDbSymbolTableRecord
100
AcDbLayerTableRecord
  2
ADCADD_FRZ
 70
     1
 62
     7
  6
CONTINUOUS
370
    -3
390
3858DFB861C84D35
347
3858DFB861C84D47
348
0
  0
LAYER
  5
3858DFB861C84DD2
330
3858DFB861C84D28
100
AcDbSymbolTableRecord
100
AcDbLayerTableRecord
  2
CENTER
 70
     0
 62
    30
  6
CENTER
370
    -3
390
3858DFB861C84D35
347
3858DFB861C84D47
348
0
  0
LAYER
  5
3858DFB861C84DD3
330
3858DFB861C84D28
100
AcDbSymbolTableRecord
100
AcDbLayerTableRecord
  2
HIDDEN
 70
     0
 62
     8
  6
HIDDEN
370
    -3
390
3858DFB861C84D35
347
3858DFB861C84D47
348
0
  0
LAYER
  5
3858DFB861C84DD4
330
3858DFB861C84D28
100
AcDbSymbolTableRecord
100
AcDbLayerTableRecord
  2
3
 70
     0
 62
     3
  6
CONTINUOUS
370
    -3
390
3858DFB861C84D35
347
3858DFB861C84D47
348
0
  0
LAYER
  5
3858DFB861C84DD5
330
3858DFB861C84D28
100
AcDbSymbolTableRecord
100
AcDbLayerTableRecord
  2
4
 70
     0
 62
     1
  6
CONTINUOUS
370
    -3
390
3858DFB861C84D35
347
3858DFB861C84D47
348
0
  0
LAYER
  5
3858DFB861C84DD6
330
3858DFB861C84D28
100
AcDbSymbolTableRecord
100
AcDbLayerTableRecord
  2
10
 70
     0
 62
     9
  6
CONTINUOUS
370
    -3
390
3858DFB861C84D35
347
3858DFB861C84D47
348
0
  0
LAYER
  5
3858DFB861C84DD7
330
3858DFB861C84D28
100
AcDbSymbolTableRecord
100
AcDbLayerTableRecord
  2
ZPAPER
 70
     0
 62
   150
  6
CONTINUOUS
370
    -3
390
3858DFB861C84D35
347
3858DFB861C84D47
348
0
  0
LAYER
  5
3858DFB861C84DD8
330
3858DFB861C84D28
100
AcDbSymbolTableRecord
100
AcDbLayerTableRecord
  2
DIM
 70
     0
 62
     7
  6
CONTINUOUS
370
    -3
390
3858DFB861C84D35
347
3858DFB861C84D47
348
0
  0
LAYER
  5
3858DFB861C84DD9
330
3858DFB861C84D28
100
AcDbSymbolTableRecord
100
AcDbLayerTableRecord
  2
AME_FRZ
 70
     1
 62
     7
  6
CONTINUOUS
370
    -3
390
3858DFB861C84D35
347
3858DFB861C84D47
348
0
  0
LAYER
  5
3858DFB861C84DDA
330
3858DFB861C84D28
100
AcDbSymbolTableRecord
100
AcDbLayerTableRecord
  2
DEFPOINTS
 70
     0
 62
     7
  6
CONTINUOUS
290
     0
370
    -3
390
3858DFB861C84D35
347
3858DFB861C84D47
348
0
  0
LAYER
  5
3858DFB861C84DDB
330
3858DFB861C84D28
100
AcDbSymbolTableRecord
100
AcDbLayerTableRecord
  2
CONSTRUCT
 70
     0
 62
     2
  6
DASHED
370
    -3
390
3858DFB861C84D35
347
3858DFB861C84D47
348
0
  0
LAYER
  5
3858DFB861C84DDC
330
3858DFB861C84D28
100
AcDbSymbolTableRecord
100
AcDbLayerTableRecord
  2
CYAN
 70
     0
 62
     4
  6
CONTINUOUS
370
    -3
390
3858DFB861C84D35
347
3858DFB861C84D47
348
0
  0
LAYER
  5
3858DFB861C84DDD
330
3858DFB861C84D28
100
AcDbSymbolTableRecord
100
AcDbLayerTableRecord
  2
MED
 70
     0
 62
   241
  6
CONTINUOUS
370
    -3
390
3858DFB861C84D35
347
3858DFB861C84D47
348
0
  0
LAYER
  5
3858DFB861C84DDE
330
3858DFB861C84D28
100
AcDbSymbolTableRecord
100
AcDbLayerTableRecord
  2
THIN
 70
     0
 62
     9
  6
CONTINUOUS
370
    -3
390
3858DFB861C84D35
347
3858DFB861C84D47
348
0
  0
LAYER
  5
3858DFB861C84DDF
330
3858DFB861C84D28
100
AcDbSymbolTableRecord
100
AcDbLayerTableRecord
  2
XTHIN
 70
     0
 62
   112
  6
CONTINUOUS
370
    -3
390
3858DFB861C84D35
347
3858DFB861C84D47
348
0
  0
LAYER
  5
3858DFB861C84DE0
330
3858DFB861C84D28
100
AcDbSymbolTableRecord
100
AcDbLayerTableRecord
  2
P
 70
     0
 62
     7
  6
CONTINUOUS
370
    -3
390
3858DFB861C84D35
347
3858DFB861C84D47
348
0
  0
LAYER
  5
3858DFB861C84DE1
330
3858DFB861C84D28
100
AcDbSymbolTableRecord
100
AcDbLayerTableRecord
  2
2
 70
     0
 62
     7
  6
CONTINUOUS
370
    -3
390
3858DFB861C84D35
347
3858DFB861C84D47
348
0
  0
LAYER
  5
3858DFB861C84DE2
330
3858DFB861C84D28
100
AcDbSymbolTableRecord
100
AcDbLayerTableRecord
  2
5
 70
     0
 62
     7
  6
CONTINUOUS
370
    -3
390
3858DFB861C84D35
347
3858DFB861C84D47
348
0
  0
LAYER
  5
3858DFB861C84DE3
330
3858DFB861C84D28
100
AcDbSymbolTableRecord
100
AcDbLayerTableRecord
  2
6
 70
     0
 62
     7
  6
CONTINUOUS
370
    -3
390
3858DFB861C84D35
347
3858DFB861C84D47
348
0
  0
ENDTAB
  0
TABLE
  2
STYLE
  5
3858DFB861C84D29
330
0
100
AcDbSymbolTable
 70
    16
  0
STYLE
  5
3858DFB861C84D7B
330
3858DFB861C84D29
100
AcDbSymbolTableRecord
100
AcDbTextStyleTableRecord
  2
STANDARD
 70
     0
 40
0.0
 41
1.0
 50
0.0
 71
     0
 42
0.2
  3
txt
  4

  0
STYLE
  5
3858DFB861C84D7F
330
3858DFB861C84D29
100
AcDbSymbolTableRecord
100
AcDbTextStyleTableRecord
  2
TOOLBOX
 70
     0
 40
0.0
 41
1.0
 50
0.0
 71
     0
 42
0.2
  3
ROMANS.SHX
  4

1001
AcadAnnotative
1000
AnnotativeData
1002
{
1070
     1
1070
     1
1002
}
  0
STYLE
  5
3858DFB861C84DB7
330
3858DFB861C84D29
100
AcDbSymbolTableRecord
100
AcDbTextStyleTableRecord
  2
ROMANS
 70
     0
 40
0.0
 41
1.0
 50
10.0
 71
     0
 42
0.2
  3
romans
  4

  0
STYLE
  5
3858DFB861C84DB8
330
3858DFB861C84D29
100
AcDbSymbolTableRecord
100
AcDbTextStyleTableRecord
  2
SIMPLEX
 70
     0
 40
0.0
 41
1.0
 50
10.0
 71
     0
 42
0.04
  3
SIMPLEX
  4

  0
STYLE
  5
3858DFB861C84DB9
330
3858DFB861C84D29
100
AcDbSymbolTableRecord
100
AcDbTextStyleTableRecord
  2
COMPLEX
 70
     0
 40
0.0
 41
1.0
 50
10.0
 71
     0
 42
0.05
  3
COMPLEX
  4

  0
STYLE
  5
3858DFB861C84DBA
330
3858DFB861C84D29
100
AcDbSymbolTableRecord
100
AcDbTextStyleTableRecord
  2
GEOTOL
 70
     0
 40
0.0
 41
1.0
 50
0.0
 71
     0
 42
0.2
  3
romans
  4

  0
STYLE
  5
3858DFB861C84DBB
330
3858DFB861C84D29
100
AcDbSymbolTableRecord
100
AcDbTextStyleTableRecord
  2
BMAT
 70
     0
 40
0.0
 41
1.0
 50
0.0
 71
     0
 42
0.2
  3
ROMANS
  4

  0
STYLE
  5
3858DFB861C84DBC
330
3858DFB861C84D29
100
AcDbSymbolTableRecord
100
AcDbTextStyleTableRecord
  2
DDIM
 70
     0
 40
0.0
 41
1.0
 50
0.0
 71
     0
 42
0.2
  3
ROMANS
  4

  0
STYLE
  5
3858DFB861C84DBD
330
3858DFB861C84D29
100
AcDbSymbolTableRecord
100
AcDbTextStyleTableRecord
  2
HCHART
 70
     0
 40
0.0
 41
1.0
 50
0.0
 71
     0
 42
0.2
  3
ROMANS
  4

  0
STYLE
  5
3858DFB861C84DBE
330
3858DFB861C84D29
100
AcDbSymbolTableRecord
100
AcDbTextStyleTableRecord
  2
PTDIM
 70
     0
 40
0.0
 41
1.0
 50
0.0
 71
     0
 42
0.2
  3
romans
  4

  0
STYLE
  5
3858DFB861C84DBF
330
3858DFB861C84D29
100
AcDbSymbolTableRecord
100
AcDbTextStyleTableRecord
  2
SECTION
 70
     0
 40
0.0
 41
1.0
 50
0.0
 71
     0
 42
0.06
  3
ROMANS
  4

  0
STYLE
  5
3858DFB861C84DC0
330
3858DFB861C84D29
100
AcDbSymbolTableRecord
100
AcDbTextStyleTableRecord
  2
LNOTE
 70
     0
 40
0.0
 41
1.0
 50
0.0
 71
     0
 42
0.2
  3
ROMANS
  4

  0
STYLE
  5
3858DFB861C84DC1
330
3858DFB861C84D29
100
AcDbSymbolTableRecord
100
AcDbTextStyleTableRecord
  2
HDIM
 70
     0
 40
0.0
 41
1.0
 50
0.0
 71
     0
 42
0.2
  3
romans
  4

  0
STYLE
  5
3858DFB861C84DC2
330
3858DFB861C84D29
100
AcDbSymbolTableRecord
100
AcDbTextStyleTableRecord
  2
CHARTRC
 70
     0
 40
0.0
 41
1.0
 50
0.0
 71
     0
 42
0.2
  3
romans
  4

  0
STYLE
  5
3858DFB861C84DC3
330
3858DFB861C84D29
100
AcDbSymbolTableRecord
100
AcDbTextStyleTableRecord
  2
ROMANC
 70
     0
 40
0.0
 41
1.0
 50
10.0
 71
     0
 42
0.05
  3
romanc
  4

  0
STYLE
  5
3858DFB861C84DC4
330
3858DFB861C84D29
100
AcDbSymbolTableRecord
100
AcDbTextStyleTableRecord
  2
ROMAND
 70
     0
 40
0.0
 41
1.0
 50
0.0
 71
     0
 42
0.1
  3
romand
  4

  0
ENDTAB
  0
TABLE
  2
VIEW
  5
3858DFB861C84D2C
330
0
100
AcDbSymbolTable
 70
     1
  0
VIEW
  5
3858DFB861C84DCD
330
3858DFB861C84D2C
100
AcDbSymbolTableRecord
100
AcDbViewTableRecord
  2
OLE1
 70
     0
 40
5.004887585532746
 10
4.0
 20
2.502443792766373
 41
8.0
 11
0.0
 21
0.0
 31
1.0
 12
0.0
 22
0.0
 32
0.0
 42
50.0
 43
0.0
 44
0.0
 50
0.0
 71
     0
281
     0
 72
     0
 73
     0
  0
ENDTAB
  0
TABLE
  2
UCS
  5
3858DFB861C84D2D
330
0
100
AcDbSymbolTable
 70
     0
  0
ENDTAB
  0
TABLE
  2
APPID
  5
3858DFB861C84D2F
330
0
100
AcDbSymbolTable
 70
     4
  0
APPID
  5
3858DFB861C84D7C
330
3858DFB861C84D2F
100
AcDbSymbolTableRecord
100
AcDbRegAppTableRecord
  2
ACAD
 70
     0
  0
APPID
  5
3858DFB861C84DD0
330
3858DFB861C84D2F
100
AcDbSymbolTableRecord
100
AcDbRegAppTableRecord
  2
TB_S_MPD
 70
     0
  0
APPID
  5
3858DFB861C84D83
330
3858DFB861C84D2F
100
AcDbSymbolTableRecord
100
AcDbRegAppTableRecord
  2
AcadAnnotative
 70
     0
  0
APPID
  5
EA90DCF131A8F622
330
3858DFB861C84D2F
100
AcDbSymbolTableRecord
100
AcDbRegAppTableRecord
  2
ACAD_NAV_VCDISPLAY
 70
     0
  0
ENDTAB
  0
TABLE
  2
DIMSTYLE
  5
3858DFB861C84D30
330
0
100
AcDbSymbolTable
 70
     2
100
AcDbDimStyleTable
 71
     0
  0
DIMSTYLE
105
3858DFB861C84D7D
330
3858DFB861C84D30
100
AcDbSymbolTableRecord
100
AcDbDimStyleTableRecord
  2
Standard
 70
     0
340
3858DFB861C84D7B
  0
DIMSTYLE
105
3858DFB861C84D7E
330
3858DFB861C84D30
100
AcDbSymbolTableRecord
100
AcDbDimStyleTableRecord
  2
Annotative
 70
     0
340
3858DFB861C84D7B
1001
AcadAnnotative
1000
AnnotativeData
1002
{
1070
     1
1070
     1
1002
}
  0
ENDTAB
  0
TABLE
  2
BLOCK_RECORD
  5
3858DFB861C84D27
330
0
100
AcDbSymbolTable
 70
    30
  0
BLOCK_RECORD
  5
3858DFB861C84D95
330
3858DFB861C84D27
100
AcDbSymbolTableRecord
100
AcDbBlockTableRecord
  2
*Model_Space
340
3858DFB861C84D98
 70
     0
280
     1
281
     0
  0
BLOCK_RECORD
  5
3858DFB861C84D91
330
3858DFB861C84D27
100
AcDbSymbolTableRecord
100
AcDbBlockTableRecord
  2
*Paper_Space
340
3858DFB861C84D94
 70
     0
280
     1
281
     0
  0
BLOCK_RECORD
  5
3858DFB861C84D99
330
3858DFB861C84D27
100
AcDbSymbolTableRecord
100
AcDbBlockTableRecord
  2
2X4
340
0
102
{BLKREFS
331
654352
331
A299F
331
A29A0
331
A2AA6
331
A2AA7
331
A2AAE
331
193A67
331
193A68
102
}
 70
     0
280
     1
281
     0
  0
BLOCK_RECORD
  5
3858DFB861C84D9A
330
3858DFB861C84D27
100
AcDbSymbolTableRecord
100
AcDbBlockTableRecord
  2
908
340
0
102
{BLKREFS
331
A29D4
331
A2A38
331
193A9D
102
}
 70
     0
280
     1
281
     0
  0
BLOCK_RECORD
  5
3858DFB861C84D9B
330
3858DFB861C84D27
100
AcDbSymbolTableRecord
100
AcDbBlockTableRecord
  2
INSL
340
0
102
{BLKREFS
331
4BFA6A
331
1170EA
331
1170EB
331
1170EC
331
1170ED
331
1170EE
331
1170EF
331
1170F0
331
1170F1
331
1170F2
331
1170F3
331
1170F4
331
1170F5
331
1170F7
331
1170F8
331
1170F9
331
193A4B
331
193A4C
331
193A4D
331
193A4E
331
193A4F
331
193A50
331
193A51
331
193A52
331
193A53
331
193A54
331
193A55
331
193A56
331
193A57
331
193A59
331
193A5A
331
193A5B
331
193AA8
331
193AA9
331
193AAA
331
193AAB
331
193AAC
331
193AAD
331
193AAE
331
193AAF
331
193AB0
331
193AB1
331
193AB2
331
193AB3
331
193AB4
331
193AB5
331
193AB6
331
193AB7
102
}
 70
     0
280
     1
281
     0
  0
BLOCK_RECORD
  5
3858DFB861C84D9C
330
3858DFB861C84D27
100
AcDbSymbolTableRecord
100
AcDbBlockTableRecord
  2
INSL90
340
0
102
{BLKREFS
331
654360
331
654361
331
654362
331
654363
331
654364
331
654365
331
6542F9
331
6542FA
331
6542FB
331
6542FC
331
6542FD
331
6542FE
331
6542FF
331
654300
331
654301
331
654302
331
654303
331
654304
331
654359
331
65435A
331
65435B
331
65435C
331
65435D
331
65435E
331
65435F
102
}
 70
     0
280
     1
281
     0
  0
BLOCK_RECORD
  5
3858DFB861C84D9D
330
3858DFB861C84D27
100
AcDbSymbolTableRecord
100
AcDbBlockTableRecord
  2
SCREW
340
0
102
{BLKREFS
331
C2F9F9
331
C2F9FA
102
}
 70
     0
280
     1
281
     0
  0
BLOCK_RECORD
  5
3858DFB861C84D9E
330
3858DFB861C84D27
100
AcDbSymbolTableRecord
100
AcDbBlockTableRecord
  2
LEGS
340
0
102
{BLKREFS
331
218269511EE1436A
331
10C134A8D27D136B
331
218269511EE1420C
331
218269511EE1432C
331
218269511EE14367
102
}
 70
     0
280
     1
281
     0
  0
BLOCK_RECORD
  5
3858DFB861C84D9F
330
3858DFB861C84D27
100
AcDbSymbolTableRecord
100
AcDbBlockTableRecord
  2
FIN3
340
0
102
{BLKREFS
331
218269511EE14434
331
218269511EE14435
331
218269511EE14436
331
218269511EE14437
331
218269511EE14438
331
218269511EE14439
331
218269511EE1443A
331
218269511EE1443B
331
218269511EE141E1
331
218269511EE141E2
331
218269511EE141E3
331
218269511EE141E4
102
}
 70
     0
280
     1
281
     0
  0
BLOCK_RECORD
  5
3858DFB861C84DA0
330
3858DFB861C84D27
100
AcDbSymbolTableRecord
100
AcDbBlockTableRecord
  2
ST
340
0
102
{BLKREFS
331
218269511EE1443C
331
218269511EE1443D
102
}
 70
     0
280
     1
281
     0
  0
BLOCK_RECORD
  5
3858DFB861C84DA1
330
3858DFB861C84D27
100
AcDbSymbolTableRecord
100
AcDbBlockTableRecord
  2
B1692
340
0
102
{BLKREFS
331
218269511EE1443E
102
}
 70
     0
280
     1
281
     0
  0
BLOCK_RECORD
  5
3858DFB861C84DA2
330
3858DFB861C84D27
100
AcDbSymbolTableRecord
100
AcDbBlockTableRecord
  2
B1693
340
0
102
{BLKREFS
331
218269511EE14446
331
218269511EE144CA
102
}
 70
     0
280
     1
281
     0
  0
BLOCK_RECORD
  5
3858DFB861C84DA3
330
3858DFB861C84D27
100
AcDbSymbolTableRecord
100
AcDbBlockTableRecord
  2
B1681A
340
0
102
{BLKREFS
331
218269511EE1443F
331
218269511EE14440
331
218269511EE14441
331
218269511EE14442
102
}
 70
     0
280
     1
281
     0
  0
BLOCK_RECORD
  5
3858DFB861C84DA4
330
3858DFB861C84D27
100
AcDbSymbolTableRecord
100
AcDbBlockTableRecord
  2
SH-12
340
0
102
{BLKREFS
331
218269511EE14443
102
}
 70
     0
280
     1
281
     0
  0
BLOCK_RECORD
  5
3858DFB861C84DA5
330
3858DFB861C84D27
100
AcDbSymbolTableRecord
100
AcDbBlockTableRecord
  2
B2434
340
0
102
{BLKREFS
331
218269511EE14444
102
}
 70
     0
280
     1
281
     0
  0
BLOCK_RECORD
  5
3858DFB861C84DA6
330
3858DFB861C84D27
100
AcDbSymbolTableRecord
100
AcDbBlockTableRecord
  2
BOWSPRNG
340
0
102
{BLKREFS
331
218269511EE14445
102
}
 70
     0
280
     1
281
     0
  0
BLOCK_RECORD
  5
3858DFB861C84DA7
330
3858DFB861C84D27
100
AcDbSymbolTableRecord
100
AcDbBlockTableRecord
  2
B1690
340
0
102
{BLKREFS
331
218269511EE14369
331
218269511EE1420B
102
}
 70
     0
280
     1
281
     0
  0
BLOCK_RECORD
  5
3858DFB861C84DA8
330
3858DFB861C84D27
100
AcDbSymbolTableRecord
100
AcDbBlockTableRecord
  2
B1797A
340
0
102
{BLKREFS
331
218269511EE14368
102
}
 70
     0
280
     1
281
     0
  0
BLOCK_RECORD
  5
3858DFB861C84DA9
330
3858DFB861C84D27
100
AcDbSymbolTableRecord
100
AcDbBlockTableRecord
  2
B2233
340
0
102
{BLKREFS
331
218269511EE143F2
331
218269511EE143F3
102
}
 70
     0
280
     1
281
     0
  0
BLOCK_RECORD
  5
3858DFB861C84DAA
330
3858DFB861C84D27
100
AcDbSymbolTableRecord
100
AcDbBlockTableRecord
  2
B1247
340
0
102
{BLKREFS
331
218269511EE143F4
102
}
 70
     0
280
     1
281
     0
  0
BLOCK_RECORD
  5
3858DFB861C84DAB
330
3858DFB861C84D27
100
AcDbSymbolTableRecord
100
AcDbBlockTableRecord
  2
B1947
340
0
102
{BLKREFS
331
218269511EE143F5
331
218269511EE143F6
102
}
 70
     0
280
     1
281
     0
  0
BLOCK_RECORD
  5
3858DFB861C84DAC
330
3858DFB861C84D27
100
AcDbSymbolTableRecord
100
AcDbBlockTableRecord
  2
*X19
340
0
102
{BLKREFS
331
218269511EE1419E
102
}
 70
     0
280
     1
281
     0
  0
BLOCK_RECORD
  5
3858DFB861C84DAD
330
3858DFB861C84D27
100
AcDbSymbolTableRecord
100
AcDbBlockTableRecord
  2
*X20
340
0
102
{BLKREFS
331
218269511EE1419D
102
}
 70
     0
280
     1
281
     0
  0
BLOCK_RECORD
  5
3858DFB861C84DAE
330
3858DFB861C84D27
100
AcDbSymbolTableRecord
100
AcDbBlockTableRecord
  2
*X21
340
0
102
{BLKREFS
331
218269511EE1419C
102
}
 70
     0
280
     1
281
     0
  0
BLOCK_RECORD
  5
3858DFB861C84DAF
330
3858DFB861C84D27
100
AcDbSymbolTableRecord
100
AcDbBlockTableRecord
  2
*X22
340
0
102
{BLKREFS
331
218269511EE1419B
102
}
 70
     0
280
     1
281
     0
  0
BLOCK_RECORD
  5
3858DFB861C84DB0
330
3858DFB861C84D27
100
AcDbSymbolTableRecord
100
AcDbBlockTableRecord
  2
*X23
340
0
102
{BLKREFS
331
218269511EE14197
331
218269511EE1419A
102
}
 70
     0
280
     1
281
     0
  0
BLOCK_RECORD
  5
3858DFB861C84DB1
330
3858DFB861C84D27
100
AcDbSymbolTableRecord
100
AcDbBlockTableRecord
  2
*X24
340
0
102
{BLKREFS
331
218269511EE14198
331
218269511EE14199
102
}
 70
     0
280
     1
281
     0
  0
BLOCK_RECORD
  5
3858DFB861C84DB2
330
3858DFB861C84D27
100
AcDbSymbolTableRecord
100
AcDbBlockTableRecord
  2
B1350
340
0
 70
     0
280
     1
281
     0
  0
BLOCK_RECORD
  5
3858DFB861C84DB3
330
3858DFB861C84D27
100
AcDbSymbolTableRecord
100
AcDbBlockTableRecord
  2
ROLLER
340
0
102
{BLKREFS
331
218269511EE14178
331
218269511EE14179
102
}
 70
     0
280
     1
281
     0
  0
BLOCK_RECORD
  5
3858DFB861C84DB4
330
3858DFB861C84D27
100
AcDbSymbolTableRecord
100
AcDbBlockTableRecord
  2
ASDTNUM
340
0
102
{BLKREFS
331
EA90DCF131A8F611
102
}
 70
     0
280
     1
281
     0
  0
BLOCK_RECORD
  5
3858DFB861C84DB5
330
3858DFB861C84D27
100
AcDbSymbolTableRecord
100
AcDbBlockTableRecord
  2
7-8ICPT
340
0
102
{BLKREFS
331
3858DFB861C84D25
331
3858DFB861C84D26
331
3858DFB861C84D18
331
3858DFB861C84D19
331
3858DFB861C84D1D
331
3858DFB861C84D1E
331
3858DFB861C84D12
331
3858DFB861C84D14
102
}
 70
     0
280
     1
281
     0
  0
BLOCK_RECORD
  5
3858DFB861C84DB6
330
3858DFB861C84D27
100
AcDbSymbolTableRecord
100
AcDbBlockTableRecord
  2
*X29
340
0
102
{BLKREFS
331
3858DFB861C84CFC
102
}
 70
     0
280
     1
281
     0
  0
ENDTAB
  0
ENDSEC
  0
SECTION
  2
BLOCKS
  0
BLOCK
  5
3858DFB861C84DE6
330
3858DFB861C84D95
100
AcDbEntity
  8
0
100
AcDbBlockBegin
  2
*Model_Space
 70
     0
 10
0.0
 20
0.0
 30
0.0
  3
*Model_Space
  1

  0
ENDBLK
  5
3858DFB861C84DE7
330
3858DFB861C84D95
100
AcDbEntity
  8
0
100
AcDbBlockEnd
  0
BLOCK
  5
3858DFB861C84DE4
330
3858DFB861C84D91
100
AcDbEntity
 67
     1
  8
0
100
AcDbBlockBegin
  2
*Paper_Space
 70
     0
 10
0.0
 20
0.0
 30
0.0
  3
*Paper_Space
  1

  0
ENDBLK
  5
3858DFB861C84DE5
330
3858DFB861C84D91
100
AcDbEntity
 67
     1
  8
0
100
AcDbBlockEnd
  0
BLOCK
  5
1BE75
330
3858DFB861C84D99
100
AcDbEntity
  8
0
100
AcDbBlockBegin
  2
2X4
 70
     0
 10
0.0
 20
0.0
 30
0.0
  3
2X4
  1

  0
LWPOLYLINE
  5
1BE76
330
3858DFB861C84D99
100
AcDbEntity
  8
3
100
AcDbPolyline
 90
        8
 70
     1
 43
0.0
 10
-1.438
 20
-1.75
 10
-0.0620000000000003
 20
-1.75
 42
0.4142135623730951
 10
0.0
 20
-1.688
 10
0.0
 20
1.688
 42
0.4142135623730951
 10
-0.0620000000000003
 20
1.75
 10
-1.438
 20
1.749999999999998
 42
0.4142135623730951
 10
-1.5
 20
1.687999999999998
 10
-1.5
 20
-1.688
 42
0.4142135623730951
  0
LINE
  5
1BE80
330
3858DFB861C84D99
100
AcDbEntity
  8
3
100
AcDbLine
 10
-1.488714099481102
 20
-1.723666232122569
 30
0.0
 11
-0.0112859005188995
 21
1.723666232122569
 31
0.0
  0
LINE
  5
1BE81
330
3858DFB861C84D99
100
AcDbEntity
  8
3
100
AcDbLine
 10
-1.488714099481101
 20
1.723666232122567
 30
0.0
 11
-0.0112859005188995
 21
-1.723666232122569
 31
0.0
  0
ENDBLK
  5
1BE82
330
3858DFB861C84D99
100
AcDbEntity
  8
0
100
AcDbBlockEnd
  0
BLOCK
  5
5A183
330
3858DFB861C84D9A
100
AcDbEntity
  8
0
100
AcDbBlockBegin
  2
908
 70
     0
 10
0.0
 20
0.0
 30
0.0
  3
908
  1

  0
LINE
  5
9F416
330
3858DFB861C84D9A
100
AcDbEntity
  8
0
100
AcDbLine
 10
-2.0
 20
0.0
 30
0.0
 11
0.0
 21
0.0
 31
0.0
  0
LINE
  5
9F41A
330
3858DFB861C84D9A
100
AcDbEntity
  8
0
100
AcDbLine
 10
-1.939999999999997
 20
1.061999999999997
 30
0.0
 11
-0.9149999999999991
 21
1.06199999999999
 31
0.0
  0
LINE
  5
9F419
330
3858DFB861C84D9A
100
AcDbEntity
  8
0
100
AcDbLine
 10
-2.0
 20
1.001999999999995
 30
0.0
 11
-2.0
 21
0.0
 31
0.0
  0
ARC
  5
9F424
330
3858DFB861C84D9A
100
AcDbEntity
  8
0
100
AcDbCircle
 10
-1.939999999999997
 20
1.001999999999995
 30
0.0
 40
0.06
100
AcDbArc
 50
90.0
 51
180.0
  0
LINE
  5
9F417
330
3858DFB861C84D9A
100
AcDbEntity
  8
0
100
AcDbLine
 10
0.0
 20
0.0
 30
0.0
 11
0.0
 21
1.164999999999999
 31
0.0
  0
LINE
  5
9F418
330
3858DFB861C84D9A
100
AcDbEntity
  8
0
100
AcDbLine
 10
-0.0600000000000023
 20
1.225000000000001
 30
0.0
 11
-0.6880863534437367
 21
1.225000000000001
 31
0.0
  0
ARC
  5
9F426
330
3858DFB861C84D9A
100
AcDbEntity
  8
0
100
AcDbCircle
 10
-0.9149999999999991
 20
1.076999999999991
 30
0.0
 40
0.015
100
AcDbArc
 50
270.0
 51
0.0
  0
LINE
  5
9F41D
330
3858DFB861C84D9A
100
AcDbEntity
  8
0
100
AcDbLine
 10
-0.8999999999999985
 20
1.110151493271281
 30
0.0
 11
-0.8999999999999985
 21
1.076999999999991
 31
0.0
  0
ARC
  5
9F427
330
3858DFB861C84D9A
100
AcDbEntity
  8
0
100
AcDbCircle
 10
-0.884999999999998
 20
1.110151493271281
 30
0.0
 40
0.015
100
AcDbArc
 50
95.05467544816495
 51
180.0
  0
ARC
  5
9F422
330
3858DFB861C84D9A
100
AcDbEntity
  8
0
100
AcDbCircle
 10
-0.9576783488539462
 20
1.931837079492559
 30
0.0
 40
0.8098935355524169
100
AcDbArc
 50
275.0546754481644
 51
287.5425476664072
  0
ARC
  5
9F428
330
3858DFB861C84D9A
100
AcDbEntity
  8
0
100
AcDbCircle
 10
-0.7180863534437379
 20
1.173911351866046
 30
0.0
 40
0.015
100
AcDbArc
 50
287.5425476664126
 51
0.0
  0
LINE
  5
9F423
330
3858DFB861C84D9A
100
AcDbEntity
  8
0
100
AcDbLine
 10
-0.7030863534437373
 20
1.173911351866046
 30
0.0
 11
-0.7030863534437373
 21
1.21
 31
0.0
  0
ARC
  5
9F429
330
3858DFB861C84D9A
100
AcDbEntity
  8
0
100
AcDbCircle
 10
-0.6880863534437367
 20
1.21
 30
0.0
 40
0.015
100
AcDbArc
 50
90.0
 51
180.0
  0
ARC
  5
9F425
330
3858DFB861C84D9A
100
AcDbEntity
  8
0
100
AcDbCircle
 10
-0.0600000000000023
 20
1.164999999999999
 30
0.0
 40
0.06
100
AcDbArc
 50
0.0
 51
90.0
  0
ENDBLK
  5
9F42B
330
3858DFB861C84D9A
100
AcDbEntity
  8
0
100
AcDbBlockEnd
  0
BLOCK
  5
1170DB
330
3858DFB861C84D9B
100
AcDbEntity
  8
0
100
AcDbBlockBegin
  2
INSL
 70
     0
 10
0.0
 20
0.0
 30
0.0
  3
INSL
  1

  0
ARC
  5
1170DC
330
3858DFB861C84D9B
100
AcDbEntity
  8
10
100
AcDbCircle
 10
0.625
 20
-0.1249999999999991
 30
0.0
 40
0.1249999999999998
100
AcDbArc
 50
0.0
 51
99.46231318671829
  0
LWPOLYLINE
  5
1170DD
330
3858DFB861C84D9B
100
AcDbEntity
  8
10
100
AcDbPolyline
 90
        2
 70
     0
 43
0.0
 10
0.6044501265868299
 20
-0.0017007595209817
 10
0.1455498539995172
 20
-0.1164258276678094
  0
ARC
  5
1170E1
330
3858DFB861C84D9B
100
AcDbEntity
  8
10
100
AcDbCircle
 10
0.125
 20
0.0068734176646208
 30
0.0
 40
0.1249999999999998
100
AcDbArc
 50
180.0
 51
279.4623131867183
  0
ARC
  5
1170E2
330
3858DFB861C84D9B
100
AcDbEntity
  8
10
100
AcDbCircle
 10
0.125
 20
-0.256873417664619
 30
0.0
 40
0.1249999999999998
100
AcDbArc
 50
80.53768681328172
 51
180.0
  0
LWPOLYLINE
  5
1170E3
330
3858DFB861C84D9B
100
AcDbEntity
  8
10
100
AcDbPolyline
 90
        2
 70
     0
 43
0.0
 10
0.6044501265868299
 20
-0.2482992404790165
 10
0.1455498539995172
 20
-0.1335741723321888
  0
ARC
  5
1170E7
330
3858DFB861C84D9B
100
AcDbEntity
  8
10
100
AcDbCircle
 10
0.625
 20
-0.1249999999999991
 30
0.0
 40
0.1249999999999998
100
AcDbArc
 50
260.5376868132817
 51
0.0
  0
ENDBLK
  5
1170E8
330
3858DFB861C84D9B
100
AcDbEntity
  8
0
100
AcDbBlockEnd
  0
BLOCK
  5
32EB46
330
3858DFB861C84D9C
100
AcDbEntity
  8
0
100
AcDbBlockBegin
  2
INSL90
 70
     0
 10
0.0
 20
0.0
 30
0.0
  3
INSL90
  1

  0
INSERT
  5
4BFA6A
330
3858DFB861C84D9C
100
AcDbEntity
  8
0
100
AcDbBlockReference
  2
INSL
 10
-0.0068734176646208
 20
0.0
 30
0.0
 50
270.0
  0
ENDBLK
  5
4BFA6C
330
3858DFB861C84D9C
100
AcDbEntity
  8
0
100
AcDbBlockEnd
  0
BLOCK
  5
654367
330
3858DFB861C84D9D
100
AcDbEntity
  8
0
100
AcDbBlockBegin
  2
SCREW
 70
     0
 10
0.0
 20
0.0
 30
0.0
  3
SCREW
  1

  0
LINE
  5
C2F9E4
330
3858DFB861C84D9D
100
AcDbEntity
  8
0
100
AcDbLine
 10
0.0078263938323699
 20
-0.0124999999999997
 30
0.0
 11
0.0292146011549113
 21
-0.0124999999999997
 31
0.0
  0
LINE
  5
C2F9F6
330
3858DFB861C84D9D
100
AcDbEntity
  8
0
100
AcDbLine
 10
0.2541352656023648
 20
0.0125000000000002
 30
0.0
 11
0.2755234729249061
 21
0.0125
 31
0.0
  0
LINE
  5
C2F9F5
330
3858DFB861C84D9D
100
AcDbEntity
  8
0
100
AcDbLine
 10
0.2424851762262206
 20
-0.0125
 30
0.0
 11
0.263873383548761
 21
-0.0125
 31
0.0
  0
LINE
  5
C2F9F4
330
3858DFB861C84D9D
100
AcDbEntity
  8
0
100
AcDbLine
 10
0.2164119781824585
 20
-0.0125
 30
0.0
 11
0.2378001855049998
 21
-0.0125
 31
0.0
  0
LINE
  5
C2F9F3
330
3858DFB861C84D9D
100
AcDbEntity
  8
0
100
AcDbLine
 10
0.2280620675586054
 20
0.0125000000000004
 30
0.0
 11
0.2494502748811458
 21
0.0125000000000002
 31
0.0
  0
LINE
  5
C2F9F2
330
3858DFB861C84D9D
100
AcDbEntity
  8
0
100
AcDbLine
 10
0.2019888695148424
 20
0.0125000000000002
 30
0.0
 11
0.2233770768373837
 21
0.0125
 31
0.0
  0
LINE
  5
C2F9F1
330
3858DFB861C84D9D
100
AcDbEntity
  8
0
100
AcDbLine
 10
0.1903387801386982
 20
-0.0124999999999997
 30
0.0
 11
0.2117269874612395
 21
-0.0124999999999997
 31
0.0
  0
LINE
  5
C2F9F0
330
3858DFB861C84D9D
100
AcDbEntity
  8
0
100
AcDbLine
 10
0.1642655820949361
 20
-0.0125
 30
0.0
 11
0.1856537894174783
 21
-0.0125
 31
0.0
  0
LINE
  5
C2F9EF
330
3858DFB861C84D9D
100
AcDbEntity
  8
0
100
AcDbLine
 10
0.1759156714710821
 20
0.0125000000000002
 30
0.0
 11
0.1973038787936225
 21
0.0125
 31
0.0
  0
LINE
  5
C2F9EE
330
3858DFB861C84D9D
100
AcDbEntity
  8
0
100
AcDbLine
 10
0.14984247342732
 20
0.0125000000000002
 30
0.0
 11
0.1712306807498596
 21
0.0125
 31
0.0
  0
LINE
  5
C2F9ED
330
3858DFB861C84D9D
100
AcDbEntity
  8
0
100
AcDbLine
 10
0.1381923840511758
 20
-0.0124999999999997
 30
0.0
 11
0.1595805913737163
 21
-0.0124999999999997
 31
0.0
  0
LINE
  5
C2F9EC
330
3858DFB861C84D9D
100
AcDbEntity
  8
0
100
AcDbLine
 10
0.1237692753835597
 20
0.0125000000000002
 30
0.0
 11
0.1451574827061002
 21
0.0125000000000002
 31
0.0
  0
LINE
  5
C2F9EB
330
3858DFB861C84D9D
100
AcDbEntity
  8
0
100
AcDbLine
 10
0.1121191860074147
 20
-0.0124999999999997
 30
0.0
 11
0.1335073933299551
 21
-0.0124999999999995
 31
0.0
  0
LINE
  5
C2F9EA
330
3858DFB861C84D9D
100
AcDbEntity
  8
0
100
AcDbLine
 10
0.0860459879636526
 20
-0.0124999999999997
 30
0.0
 11
0.1074341952861939
 21
-0.0124999999999993
 31
0.0
  0
LINE
  5
C2F9E9
330
3858DFB861C84D9D
100
AcDbEntity
  8
0
100
AcDbLine
 10
0.0976960773397986
 20
0.0125
 30
0.0
 11
0.1190842846623399
 21
0.0125000000000002
 31
0.0
  0
LINE
  5
C2F9E8
330
3858DFB861C84D9D
100
AcDbEntity
  8
0
100
AcDbLine
 10
0.0716228792960374
 20
0.0125
 30
0.0
 11
0.093011086618577
 21
0.0124999999999997
 31
0.0
  0
LINE
  5
C2F9E7
330
3858DFB861C84D9D
100
AcDbEntity
  8
0
100
AcDbLine
 10
0.0599727899198905
 20
-0.0124999999999995
 30
0.0
 11
0.0813609972424328
 21
-0.0124999999999995
 31
0.0
  0
LINE
  5
C2F9E6
330
3858DFB861C84D9D
100
AcDbEntity
  8
0
100
AcDbLine
 10
0.033899591876132
 20
-0.0124999999999995
 30
0.0
 11
0.0552877991986725
 21
-0.0124999999999993
 31
0.0
  0
LINE
  5
C2F9E5
330
3858DFB861C84D9D
100
AcDbEntity
  8
0
100
AcDbLine
 10
0.0455496812522753
 20
0.0125
 30
0.0
 11
0.0669378885748158
 21
0.0125
 31
0.0
  0
LINE
  5
C2F9E3
330
3858DFB861C84D9D
100
AcDbEntity
  8
0
100
AcDbLine
 10
0.0194764832085142
 20
0.0125
 30
0.0
 11
0.0408646905310555
 21
0.0125
 31
0.0
  0
LINE
  5
C2F9E2
330
3858DFB861C84D9D
100
AcDbEntity
  8
0
100
AcDbLine
 10
0.0078263938323691
 20
-0.0124999999999995
 30
0.0
 11
0.0292146011549104
 21
-0.0124999999999995
 31
0.0
  0
LINE
  5
C2F9E1
330
3858DFB861C84D9D
100
AcDbEntity
  8
0
100
AcDbLine
 10
0.0338995918761302
 20
-0.0124999999999995
 30
0.0
 11
0.0552877991986716
 21
-0.0124999999999995
 31
0.0
  0
LINE
  5
C2F9E0
330
3858DFB861C84D9D
100
AcDbEntity
  8
0
100
AcDbLine
 10
0.0599727899198914
 20
-0.0124999999999995
 30
0.0
 11
0.0813609972424328
 21
-0.0124999999999995
 31
0.0
  0
LINE
  5
C2F9DF
330
3858DFB861C84D9D
100
AcDbEntity
  8
0
100
AcDbLine
 10
0.0716228792960365
 20
0.0125000000000006
 30
0.0
 11
0.0930110866185778
 21
0.0125000000000006
 31
0.0
  0
LINE
  5
C2F9DE
330
3858DFB861C84D9D
100
AcDbEntity
  8
0
100
AcDbLine
 10
0.0455496812522753
 20
0.0125000000000006
 30
0.0
 11
0.0669378885748167
 21
0.0125000000000006
 31
0.0
  0
LINE
  5
C2F9DD
330
3858DFB861C84D9D
100
AcDbEntity
  8
0
100
AcDbLine
 10
0.0194764832085142
 20
0.0125000000000006
 30
0.0
 11
0.0408646905310555
 21
0.0125000000000006
 31
0.0
  0
LINE
  5
C2F9DC
330
3858DFB861C84D9D
100
AcDbEntity
  8
0
100
AcDbLine
 10
0.0
 20
0.0125000000000006
 30
0.0
 11
0.0147914924872943
 21
0.0125000000000006
 31
0.0
  0
LINE
  5
C2F9DB
330
3858DFB861C84D9D
100
AcDbEntity
  8
0
100
AcDbLine
 10
0.0
 20
-0.0124999999999995
 30
0.0
 11
0.0031414031111492
 21
-0.0124999999999995
 31
0.0
  0
LINE
  5
C2F9D9
330
3858DFB861C84D9D
100
AcDbEntity
  8
0
100
AcDbLine
 10
0.0031414031111492
 20
-0.0124999999999995
 30
0.0
 11
0.005872792717712
 21
-0.0195121085552601
 31
0.0
  0
LINE
  5
C2F9D8
330
3858DFB861C84D9D
100
AcDbEntity
  8
0
100
AcDbLine
 10
0.0292146011549104
 20
-0.0124999999999995
 30
0.0
 11
0.0319459907614732
 21
-0.0195121085552601
 31
0.0
  0
LINE
  5
C2F9D7
330
3858DFB861C84D9D
100
AcDbEntity
  8
0
100
AcDbLine
 10
0.0552877991986716
 20
-0.0124999999999995
 30
0.0
 11
0.0580191888052344
 21
-0.0195121085552601
 31
0.0
  0
LINE
  5
C2F9D6
330
3858DFB861C84D9D
100
AcDbEntity
  8
0
100
AcDbLine
 10
0.0813609972424328
 20
-0.0124999999999995
 30
0.0
 11
0.0840923868489956
 21
-0.0195121085552603
 31
0.0
  0
LINE
  5
C2F9D5
330
3858DFB861C84D9D
100
AcDbEntity
  8
0
100
AcDbLine
 10
0.0580191888052344
 20
-0.0195121085552601
 30
0.0
 11
0.0688914896894737
 21
0.0195121085552601
 31
0.0
  0
LINE
  5
C2F9D4
330
3858DFB861C84D9D
100
AcDbEntity
  8
0
100
AcDbLine
 10
0.0688914896894737
 20
0.0195121085552601
 30
0.0
 11
0.0716228792960365
 21
0.0125000000000004
 31
0.0
  0
LINE
  5
C2F9D3
330
3858DFB861C84D9D
100
AcDbEntity
  8
0
100
AcDbLine
 10
0.0840923868489956
 20
-0.0195121085552603
 30
0.0
 11
0.0949646877332349
 21
0.0195121085552601
 31
0.0
  0
LINE
  5
C2F9D2
330
3858DFB861C84D9D
100
AcDbEntity
  8
0
100
AcDbLine
 10
0.0949646877332349
 20
0.0195121085552601
 30
0.0
 11
0.0976960773397977
 21
0.0125000000000004
 31
0.0
  0
LINE
  5
C2F9CF
330
3858DFB861C84D9D
100
AcDbEntity
  8
0
100
AcDbLine
 10
0.0428182916457125
 20
0.0195121085552603
 30
0.0
 11
0.0455496812522753
 21
0.0125000000000004
 31
0.0
  0
LINE
  5
C2F9CE
330
3858DFB861C84D9D
100
AcDbEntity
  8
0
100
AcDbLine
 10
0.0319459907614732
 20
-0.0195121085552601
 30
0.0
 11
0.0428182916457125
 21
0.0195121085552603
 31
0.0
  0
LINE
  5
C2F9CD
330
3858DFB861C84D9D
100
AcDbEntity
  8
0
100
AcDbLine
 10
0.0167450936019513
 20
0.0195121085552603
 30
0.0
 11
0.0194764832085142
 21
0.0125000000000004
 31
0.0
  0
LINE
  5
C2F9CC
330
3858DFB861C84D9D
100
AcDbEntity
  8
0
100
AcDbLine
 10
0.005872792717712
 20
-0.0195121085552601
 30
0.0
 11
0.0167450936019513
 21
0.0195121085552603
 31
0.0
  0
LINE
  5
C2F9CB
330
3858DFB861C84D9D
100
AcDbEntity
  8
0
100
AcDbLine
 10
0.1362387829365179
 20
-0.0195121085552603
 30
0.0
 11
0.1471110838207572
 21
0.0195121085552601
 31
0.0
  0
LINE
  5
C2F9CA
330
3858DFB861C84D9D
100
AcDbEntity
  8
0
100
AcDbLine
 10
0.1471110838207572
 20
0.0195121085552601
 30
0.0
 11
0.14984247342732
 21
0.0125000000000002
 31
0.0
  0
LINE
  5
C2F9C9
330
3858DFB861C84D9D
100
AcDbEntity
  8
0
100
AcDbLine
 10
0.1623119809802791
 20
-0.0195121085552603
 30
0.0
 11
0.1731842818645184
 21
0.0195121085552601
 31
0.0
  0
LINE
  5
C2F9C8
330
3858DFB861C84D9D
100
AcDbEntity
  8
0
100
AcDbLine
 10
0.1731842818645184
 20
0.0195121085552601
 30
0.0
 11
0.1759156714710812
 21
0.0125000000000002
 31
0.0
  0
LINE
  5
C2F9C7
330
3858DFB861C84D9D
100
AcDbEntity
  8
0
100
AcDbLine
 10
0.121037885776996
 20
0.0195121085552601
 30
0.0
 11
0.1237692753835589
 21
0.0125000000000002
 31
0.0
  0
LINE
  5
C2F9C6
330
3858DFB861C84D9D
100
AcDbEntity
  8
0
100
AcDbLine
 10
0.1101655848927567
 20
-0.0195121085552603
 30
0.0
 11
0.121037885776996
 21
0.0195121085552601
 31
0.0
  0
LINE
  5
C2F9C5
330
3858DFB861C84D9D
100
AcDbEntity
  8
0
100
AcDbLine
 10
0.2405315751115626
 20
-0.0195121085552605
 30
0.0
 11
0.2514038759958019
 21
0.0195121085552599
 31
0.0
  0
LINE
  5
C2F9C4
330
3858DFB861C84D9D
100
AcDbEntity
  8
0
100
AcDbLine
 10
0.2514038759958019
 20
0.0195121085552599
 30
0.0
 11
0.2541352656023648
 21
0.0125000000000002
 31
0.0
  0
LINE
  5
C2F9C3
330
3858DFB861C84D9D
100
AcDbEntity
  8
0
100
AcDbLine
 10
0.2253306779520408
 20
0.0195121085552599
 30
0.0
 11
0.2280620675586036
 21
0.0125000000000002
 31
0.0
  0
LINE
  5
C2F9C2
330
3858DFB861C84D9D
100
AcDbEntity
  8
0
100
AcDbLine
 10
0.2144583770678015
 20
-0.0195121085552605
 30
0.0
 11
0.2253306779520408
 21
0.0195121085552599
 31
0.0
  0
LINE
  5
C2F9C1
330
3858DFB861C84D9D
100
AcDbEntity
  8
0
100
AcDbLine
 10
0.1992574799082796
 20
0.0195121085552599
 30
0.0
 11
0.2019888695148424
 21
0.0125000000000002
 31
0.0
  0
LINE
  5
C2F9C0
330
3858DFB861C84D9D
100
AcDbEntity
  8
0
100
AcDbLine
 10
0.1883851790240403
 20
-0.0195121085552603
 30
0.0
 11
0.1992574799082796
 21
0.0195121085552599
 31
0.0
  0
LINE
  5
C2F9BF
330
3858DFB861C84D9D
100
AcDbEntity
  8
0
100
AcDbLine
 10
0.2378001855049998
 20
-0.0124999999999997
 30
0.0
 11
0.2405315751115626
 21
-0.0195121085552605
 31
0.0
  0
LINE
  5
C2F9BE
330
3858DFB861C84D9D
100
AcDbEntity
  8
0
100
AcDbLine
 10
0.2117269874612386
 20
-0.0124999999999997
 30
0.0
 11
0.2144583770678015
 21
-0.0195121085552605
 31
0.0
  0
LINE
  5
C2F9BD
330
3858DFB861C84D9D
100
AcDbEntity
  8
0
100
AcDbLine
 10
0.1856537894174774
 20
-0.0124999999999997
 30
0.0
 11
0.1883851790240403
 21
-0.0195121085552603
 31
0.0
  0
LINE
  5
C2F9BC
330
3858DFB861C84D9D
100
AcDbEntity
  8
0
100
AcDbLine
 10
0.1595805913737163
 20
-0.0124999999999997
 30
0.0
 11
0.1623119809802791
 21
-0.0195121085552603
 31
0.0
  0
LINE
  5
C2F9BB
330
3858DFB861C84D9D
100
AcDbEntity
  8
0
100
AcDbLine
 10
0.1335073933299551
 20
-0.0124999999999997
 30
0.0
 11
0.1362387829365179
 21
-0.0195121085552603
 31
0.0
  0
LINE
  5
C2F9BA
330
3858DFB861C84D9D
100
AcDbEntity
  8
0
100
AcDbLine
 10
0.1074341952861939
 20
-0.0124999999999997
 30
0.0
 11
0.1101655848927567
 21
-0.0195121085552603
 31
0.0
  0
LINE
  5
C2F9B9
330
3858DFB861C84D9D
100
AcDbEntity
  8
0
100
AcDbLine
 10
0.1121191860074138
 20
-0.0124999999999997
 30
0.0
 11
0.1335073933299551
 21
-0.0124999999999997
 31
0.0
  0
LINE
  5
C2F9B8
330
3858DFB861C84D9D
100
AcDbEntity
  8
0
100
AcDbLine
 10
0.1237692753835589
 20
0.0125000000000002
 30
0.0
 11
0.1451574827061002
 21
0.0125000000000004
 31
0.0
  0
LINE
  5
C2F9B7
330
3858DFB861C84D9D
100
AcDbEntity
  8
0
100
AcDbLine
 10
0.14984247342732
 20
0.0125000000000004
 30
0.0
 11
0.1712306807498614
 21
0.0125000000000004
 31
0.0
  0
LINE
  5
C2F9B6
330
3858DFB861C84D9D
100
AcDbEntity
  8
0
100
AcDbLine
 10
0.1759156714710812
 20
0.0125000000000004
 30
0.0
 11
0.1973038787936225
 21
0.0125000000000004
 31
0.0
  0
LINE
  5
C2F9B5
330
3858DFB861C84D9D
100
AcDbEntity
  8
0
100
AcDbLine
 10
0.2019888695148424
 20
0.0125000000000004
 30
0.0
 11
0.2233770768373837
 21
0.0125000000000004
 31
0.0
  0
LINE
  5
C2F9B4
330
3858DFB861C84D9D
100
AcDbEntity
  8
0
100
AcDbLine
 10
0.2280620675586036
 20
0.0125000000000002
 30
0.0
 11
0.2494502748811449
 21
0.0125000000000002
 31
0.0
  0
LINE
  5
C2F9B3
330
3858DFB861C84D9D
100
AcDbEntity
  8
0
100
AcDbLine
 10
0.2164119781824585
 20
-0.0124999999999997
 30
0.0
 11
0.2378001855049998
 21
-0.0124999999999997
 31
0.0
  0
LINE
  5
C2F9B2
330
3858DFB861C84D9D
100
AcDbEntity
  8
0
100
AcDbLine
 10
0.1903387801386973
 20
-0.0124999999999997
 30
0.0
 11
0.2117269874612386
 21
-0.0124999999999997
 31
0.0
  0
LINE
  5
C2F9B1
330
3858DFB861C84D9D
100
AcDbEntity
  8
0
100
AcDbLine
 10
0.1642655820949361
 20
-0.0124999999999997
 30
0.0
 11
0.1856537894174774
 21
-0.0124999999999997
 31
0.0
  0
LINE
  5
C2F9B0
330
3858DFB861C84D9D
100
AcDbEntity
  8
0
100
AcDbLine
 10
0.1381923840511749
 20
-0.0124999999999997
 30
0.0
 11
0.1595805913737163
 21
-0.0124999999999997
 31
0.0
  0
LINE
  5
C2F976
330
3858DFB861C84D9D
100
AcDbEntity
  8
0
100
AcDbLine
 10
-0.012338229093352
 20
0.03125
 30
0.0
 11
-0.012338229093352
 21
0.0044752542557935
 31
0.0
  0
ARC
  5
C2F975
330
3858DFB861C84D9D
100
AcDbEntity
  8
0
100
AcDbCircle
 10
0.4235963868074446
 20
-0.2247785945425313
 30
0.0
 40
0.2374087796889436
100
AcDbArc
 50
71.22679001091609
 51
74.95587497807313
  0
ARC
  5
C2F974
330
3858DFB861C84D9D
100
AcDbEntity
  8
0
100
AcDbCircle
 10
0.4235963868074446
 20
0.2247785945425313
 30
0.0
 40
0.2374087796889436
100
AcDbArc
 50
276.748031452437
 51
281.4372622023214
  0
ARC
  5
C2F973
330
3858DFB861C84D9D
100
AcDbEntity
  8
0
100
AcDbCircle
 10
0.4235963868074446
 20
-0.2247785945425313
 30
0.0
 40
0.2374087796889436
100
AcDbArc
 50
76.28935660634846
 51
80.19633667008594
  0
ARC
  5
C2F972
330
3858DFB861C84D9D
100
AcDbEntity
  8
0
100
AcDbCircle
 10
0.4235963868074446
 20
0.2247785945425313
 30
0.0
 40
0.2374087796889436
100
AcDbArc
 50
271.8975350562669
 51
275.4204660603767
  0
LINE
  5
C2F971
330
3858DFB861C84D9D
100
AcDbEntity
  8
0
100
AcDbLine
 10
0.294631572313742
 20
-0.0125
 30
0.0
 11
0.3160197796362834
 21
-0.0125
 31
0.0
  0
LINE
  5
C2F970
330
3858DFB861C84D9D
100
AcDbEntity
  8
0
100
AcDbLine
 10
0.3207047703575032
 20
-0.0125
 30
0.0
 11
0.3420929776800445
 21
-0.0125
 31
0.0
  0
LINE
  5
C2F96F
330
3858DFB861C84D9D
100
AcDbEntity
  8
0
100
AcDbLine
 10
0.424997562532548
 20
-0.0125
 30
0.0
 11
0.431457509202776
 21
-0.0125
 31
0.0
  0
ARC
  5
C2F96E
330
3858DFB861C84D9D
100
AcDbEntity
  8
0
100
AcDbCircle
 10
0.4235963868074446
 20
-0.2247785945425313
 30
0.0
 40
0.2374087796889436
100
AcDbArc
 50
81.81449898990948
 51
86.82662619720018
  0
LINE
  5
C2F96D
330
3858DFB861C84D9D
100
AcDbEntity
  8
0
100
AcDbLine
 10
0.3467779684012644
 20
-0.0125
 30
0.0
 11
0.3681661757238057
 21
-0.0125
 31
0.0
  0
LINE
  5
C2F96C
330
3858DFB861C84D9D
100
AcDbEntity
  8
0
100
AcDbLine
 10
0.3728511664450256
 20
-0.0125
 30
0.0
 11
0.3942393737675669
 21
-0.0125
 31
0.0
  0
LINE
  5
C2F96B
330
3858DFB861C84D9D
100
AcDbEntity
  8
0
100
AcDbLine
 10
0.3989243644887868
 20
-0.0125
 30
0.0
 11
0.4203125718113281
 21
-0.0125
 31
0.0
  0
LINE
  5
C2F96A
330
3858DFB861C84D9D
100
AcDbEntity
  8
0
100
AcDbLine
 10
0.4105744538649319
 20
0.0125
 30
0.0
 11
0.431457509202776
 21
0.0125
 31
0.0
  0
LINE
  5
C2F969
330
3858DFB861C84D9D
100
AcDbEntity
  8
0
100
AcDbLine
 10
0.3845012558211707
 20
0.0125
 30
0.0
 11
0.405889463143712
 21
0.0125
 31
0.0
  0
LINE
  5
C2F968
330
3858DFB861C84D9D
100
AcDbEntity
  8
0
100
AcDbLine
 10
0.3584280577774095
 20
0.0125000000000002
 30
0.0
 11
0.3798162650999508
 21
0.0125000000000002
 31
0.0
  0
LINE
  5
C2F967
330
3858DFB861C84D9D
100
AcDbEntity
  8
0
100
AcDbLine
 10
0.3323548597336483
 20
0.0125000000000002
 30
0.0
 11
0.3537430670561896
 21
0.0125000000000002
 31
0.0
  0
LINE
  5
C2F966
330
3858DFB861C84D9D
100
AcDbEntity
  8
0
100
AcDbLine
 10
0.3062816616898871
 20
0.0125000000000002
 30
0.0
 11
0.3276698690124284
 21
0.0125000000000002
 31
0.0
  0
LINE
  5
C2F965
330
3858DFB861C84D9D
100
AcDbEntity
  8
0
100
AcDbLine
 10
0.2802084636461259
 20
0.0125
 30
0.0
 11
0.3015966709686673
 21
0.0125000000000002
 31
0.0
  0
LINE
  5
C2F964
330
3858DFB861C84D9D
100
AcDbEntity
  8
0
100
AcDbLine
 10
0.0
 20
0.0125
 30
0.0
 11
0.0147914924872943
 21
0.0125
 31
0.0
  0
LINE
  5
C2F963
330
3858DFB861C84D9D
100
AcDbEntity
  8
0
100
AcDbLine
 10
0.2685583742699809
 20
-0.0125
 30
0.0
 11
0.2899465815925222
 21
-0.0125
 31
0.0
  0
LINE
  5
C2F962
330
3858DFB861C84D9D
100
AcDbEntity
  8
0
100
AcDbLine
 10
0.0
 20
-0.0125
 30
0.0
 11
0.0031414031111492
 21
-0.0124999999999997
 31
0.0
  0
LINE
  5
C2F961
330
3858DFB861C84D9D
100
AcDbEntity
  8
0
100
AcDbLine
 10
0.263873383548761
 20
-0.0125
 30
0.0
 11
0.2666047731553238
 21
-0.0195121085552605
 31
0.0
  0
LINE
  5
C2F960
330
3858DFB861C84D9D
100
AcDbEntity
  8
0
100
AcDbLine
 10
0.2899465815925222
 20
-0.0125
 30
0.0
 11
0.292677971199085
 21
-0.0195121085552605
 31
0.0
  0
LINE
  5
C2F95F
330
3858DFB861C84D9D
100
AcDbEntity
  8
0
100
AcDbLine
 10
0.3160197796362834
 20
-0.0125
 30
0.0
 11
0.3187511692428462
 21
-0.0195121085552605
 31
0.0
  0
LINE
  5
C2F95E
330
3858DFB861C84D9D
100
AcDbEntity
  8
0
100
AcDbLine
 10
0.3420929776800445
 20
-0.0125
 30
0.0
 11
0.3448243672866074
 21
-0.0195121085552605
 31
0.0
  0
LINE
  5
C2F95D
330
3858DFB861C84D9D
100
AcDbEntity
  8
0
100
AcDbLine
 10
0.3681661757238057
 20
-0.0125
 30
0.0
 11
0.3708975653303685
 21
-0.0195121085552608
 31
0.0
  0
LINE
  5
C2F95C
330
3858DFB861C84D9D
100
AcDbEntity
  8
0
100
AcDbLine
 10
0.3942393737675669
 20
-0.0125
 30
0.0
 11
0.3969707633741297
 21
-0.0195121085552608
 31
0.0
  0
LINE
  5
C2F95B
330
3858DFB861C84D9D
100
AcDbEntity
  8
0
100
AcDbLine
 10
0.4203125718113281
 20
-0.0125
 30
0.0
 11
0.423043961417891
 21
-0.0195121085552608
 31
0.0
  0
LINE
  5
C2F95A
330
3858DFB861C84D9D
100
AcDbEntity
  8
0
100
AcDbLine
 10
0.4460229512965555
 20
-0.0115685608848382
 30
0.0
 11
0.4491171594616521
 21
-0.019512108555261
 31
0.0
  0
LINE
  5
C2F959
330
3858DFB861C84D9D
100
AcDbEntity
  8
0
100
AcDbLine
 10
0.4706733171037954
 20
-0.0079158216072026
 30
0.0
 11
0.4737946927099231
 21
-0.0159291143792517
 31
0.0
  0
LINE
  5
C2F958
330
3858DFB861C84D9D
100
AcDbEntity
  8
0
100
AcDbLine
 10
0.3448243672866074
 20
-0.0195121085552605
 30
0.0
 11
0.3556966681708467
 21
0.0195121085552597
 31
0.0
  0
LINE
  5
C2F957
330
3858DFB861C84D9D
100
AcDbEntity
  8
0
100
AcDbLine
 10
0.3556966681708467
 20
0.0195121085552597
 30
0.0
 11
0.3584280577774095
 21
0.0125
 31
0.0
  0
LINE
  5
C2F956
330
3858DFB861C84D9D
100
AcDbEntity
  8
0
100
AcDbLine
 10
0.3708975653303685
 20
-0.0195121085552608
 30
0.0
 11
0.3817698662146078
 21
0.0195121085552597
 31
0.0
  0
LINE
  5
C2F955
330
3858DFB861C84D9D
100
AcDbEntity
  8
0
100
AcDbLine
 10
0.3817698662146078
 20
0.0195121085552597
 30
0.0
 11
0.3845012558211707
 21
0.0125
 31
0.0
  0
LINE
  5
C2F954
330
3858DFB861C84D9D
100
AcDbEntity
  8
0
100
AcDbLine
 10
0.4339162623021302
 20
0.0195121085552597
 30
0.0
 11
0.436738745412054
 21
0.0122661419181223
 31
0.0
  0
LINE
  5
C2F953
330
3858DFB861C84D9D
100
AcDbEntity
  8
0
100
AcDbLine
 10
0.423043961417891
 20
-0.0195121085552608
 30
0.0
 11
0.4339162623021302
 21
0.0195121085552597
 31
0.0
  0
LINE
  5
C2F952
330
3858DFB861C84D9D
100
AcDbEntity
  8
0
100
AcDbLine
 10
0.4078430642583691
 20
0.0195121085552597
 30
0.0
 11
0.4105744538649319
 21
0.0125
 31
0.0
  0
LINE
  5
C2F951
330
3858DFB861C84D9D
100
AcDbEntity
  8
0
100
AcDbLine
 10
0.3969707633741297
 20
-0.0195121085552608
 30
0.0
 11
0.4078430642583691
 21
0.0195121085552597
 31
0.0
  0
LINE
  5
C2F950
330
3858DFB861C84D9D
100
AcDbEntity
  8
0
100
AcDbLine
 10
0.4818756640031854
 20
0.0130761147410392
 30
0.0
 11
0.4852188871696761
 21
0.0044932879954271
 31
0.0
  0
LINE
  5
C2F94F
330
3858DFB861C84D9D
100
AcDbEntity
  8
0
100
AcDbLine
 10
0.4737946927099231
 20
-0.0159291143792517
 30
0.0
 11
0.4818756640031854
 21
0.0130761147410392
 31
0.0
  0
LINE
  5
C2F94E
330
3858DFB861C84D9D
100
AcDbEntity
  8
0
100
AcDbLine
 10
0.4599894603458914
 20
0.0195121085552597
 30
0.0
 11
0.4640205739613972
 21
0.0091633080023841
 31
0.0
  0
LINE
  5
C2F94D
330
3858DFB861C84D9D
100
AcDbEntity
  8
0
100
AcDbLine
 10
0.4491171594616521
 20
-0.019512108555261
 30
0.0
 11
0.4599894603458914
 21
0.0195121085552597
 31
0.0
  0
LINE
  5
C2F94C
330
3858DFB861C84D9D
100
AcDbEntity
  8
0
100
AcDbLine
 10
0.2666047731553238
 20
-0.0195121085552605
 30
0.0
 11
0.2774770740395631
 21
0.0195121085552599
 31
0.0
  0
LINE
  5
C2F94B
330
3858DFB861C84D9D
100
AcDbEntity
  8
0
100
AcDbLine
 10
0.2774770740395631
 20
0.0195121085552599
 30
0.0
 11
0.2802084636461259
 21
0.0125
 31
0.0
  0
LINE
  5
C2F94A
330
3858DFB861C84D9D
100
AcDbEntity
  8
0
100
AcDbLine
 10
0.3296234701270855
 20
0.0195121085552599
 30
0.0
 11
0.3323548597336483
 21
0.0125
 31
0.0
  0
LINE
  5
C2F949
330
3858DFB861C84D9D
100
AcDbEntity
  8
0
100
AcDbLine
 10
0.3187511692428462
 20
-0.0195121085552605
 30
0.0
 11
0.3296234701270855
 21
0.0195121085552599
 31
0.0
  0
LINE
  5
C2F948
330
3858DFB861C84D9D
100
AcDbEntity
  8
0
100
AcDbLine
 10
0.3035502720833243
 20
0.0195121085552599
 30
0.0
 11
0.3062816616898871
 21
0.0125
 31
0.0
  0
LINE
  5
C2F947
330
3858DFB861C84D9D
100
AcDbEntity
  8
0
100
AcDbLine
 10
0.292677971199085
 20
-0.0195121085552605
 30
0.0
 11
0.3035502720833243
 21
0.0195121085552599
 31
0.0
  0
ARC
  5
C2F946
330
3858DFB861C84D9D
100
AcDbEntity
  8
0
100
AcDbCircle
 10
0.4235963868074446
 20
-0.2247785945425313
 30
0.0
 40
0.2374087796889436
100
AcDbArc
 50
87.9816321470429
 51
88.10246494373314
  0
ARC
  5
C2F945
330
3858DFB861C84D9D
100
AcDbEntity
  8
0
100
AcDbCircle
 10
0.4235963868074446
 20
0.2247785945425313
 30
0.0
 40
0.2374087796889436
100
AcDbArc
 50
282.8432178027528
 51
288.773209989084
  0
ARC
  5
C2F944
330
3858DFB861C84D9D
100
AcDbEntity
  8
0
100
AcDbCircle
 10
0.0204742709066483
 20
0.0
 30
0.0
 40
0.0453124999999996
100
AcDbArc
 50
136.3971810272958
 51
223.602818972704
  0
LINE
  5
C2F943
330
3858DFB861C84D9D
100
AcDbEntity
  8
0
100
AcDbLine
 10
0.0
 20
0.03125
 30
0.0
 11
-0.012338229093352
 21
0.03125
 31
0.0
  0
LINE
  5
C2F942
330
3858DFB861C84D9D
100
AcDbEntity
  8
0
100
AcDbLine
 10
0.0
 20
-0.03125
 30
0.0
 11
-0.012338229093352
 21
-0.03125
 31
0.0
  0
LINE
  5
C2F941
330
3858DFB861C84D9D
100
AcDbEntity
  8
0
100
AcDbLine
 10
0.0
 20
0.0
 30
0.0
 11
0.0
 21
0.03125
 31
0.0
  0
LINE
  5
C2F940
330
3858DFB861C84D9D
100
AcDbEntity
  8
0
100
AcDbLine
 10
0.0
 20
0.0
 30
0.0
 11
0.0
 21
-0.03125
 31
0.0
  0
ENDBLK
  5
C2F9F8
330
3858DFB861C84D9D
100
AcDbEntity
  8
0
100
AcDbBlockEnd
  0
BLOCK
  5
10C134A88FD2476F
330
3858DFB861C84D9E
100
AcDbEntity
  8
0
100
AcDbBlockBegin
  2
LEGS
 70
     0
 10
8.015561209803713
 20
5.823779666528301
 30
0.0
  3
LEGS
  1

  0
LINE
  5
10C134A88FD24770
330
3858DFB861C84D9E
100
AcDbEntity
  8
0
  6
Continuous
100
AcDbLine
 10
7.629523854008071
 20
5.772638999598913
 30
0.0
 11
7.665561209803713
 21
5.823779666528301
 31
0.0
  0
ARC
  5
10C134A88FD24771
330
3858DFB861C84D9E
100
AcDbEntity
  8
0
  6
Continuous
100
AcDbCircle
 10
7.63952385400807
 20
5.772638999598914
 30
0.0
 40
0.01
100
AcDbArc
 50
180.0000000000025
 51
345.5320097083764
  0
LINE
  5
10C134A88FD24772
330
3858DFB861C84D9E
100
AcDbEntity
  8
0
  6
Continuous
100
AcDbLine
 10
7.715561209803714
 20
5.823779666528301
 30
0.0
 11
7.649206727710896
 21
5.770140608745758
 31
0.0
  0
LINE
  5
10C134A88FD24773
330
3858DFB861C84D9E
100
AcDbEntity
  8
0
  6
Continuous
100
AcDbLine
 10
7.929523854008071
 20
5.772638999598913
 30
0.0
 11
7.965561209803714
 21
5.823779666528301
 31
0.0
  0
ARC
  5
10C134A88FD24774
330
3858DFB861C84D9E
100
AcDbEntity
  8
0
  6
Continuous
100
AcDbCircle
 10
7.939523854008071
 20
5.772638999598914
 30
0.0
 40
0.01
100
AcDbArc
 50
180.0000000000025
 51
345.5320097083764
  0
LINE
  5
10C134A88FD24775
330
3858DFB861C84D9E
100
AcDbEntity
  8
0
  6
Continuous
100
AcDbLine
 10
8.015561209803713
 20
5.823779666528301
 30
0.0
 11
7.949206727710897
 21
5.770140608745758
 31
0.0
  0
LINE
  5
10C134A88FD24776
330
3858DFB861C84D9E
100
AcDbEntity
  8
0
  6
Continuous
100
AcDbLine
 10
8.015561209803713
 20
4.823779666528304
 30
0.0
 11
7.949206727710897
 21
4.877418724310846
 31
0.0
  0
ARC
  5
10C134A88FD24777
330
3858DFB861C84D9E
100
AcDbEntity
  8
0
  6
Continuous
100
AcDbCircle
 10
7.939523854008071
 20
4.874920333457691
 30
0.0
 40
0.01
100
AcDbArc
 50
14.46799029162355
 51
179.9999999999974
  0
LINE
  5
10C134A88FD24778
330
3858DFB861C84D9E
100
AcDbEntity
  8
0
  6
Continuous
100
AcDbLine
 10
7.929523854008071
 20
4.874920333457691
 30
0.0
 11
7.965561209803714
 21
4.823779666528304
 31
0.0
  0
LINE
  5
10C134A88FD24779
330
3858DFB861C84D9E
100
AcDbEntity
  8
0
  6
Continuous
100
AcDbLine
 10
7.715561209803714
 20
4.823779666528304
 30
0.0
 11
7.649206727710896
 21
4.877418724310846
 31
0.0
  0
ARC
  5
10C134A88FD2477A
330
3858DFB861C84D9E
100
AcDbEntity
  8
0
  6
Continuous
100
AcDbCircle
 10
7.63952385400807
 20
4.874920333457691
 30
0.0
 40
0.01
100
AcDbArc
 50
14.46799029162355
 51
179.9999999999974
  0
LINE
  5
10C134A88FD2477B
330
3858DFB861C84D9E
100
AcDbEntity
  8
0
  6
Continuous
100
AcDbLine
 10
7.629523854008071
 20
4.874920333457691
 30
0.0
 11
7.665561209803713
 21
4.823779666528304
 31
0.0
  0
ENDBLK
  5
10C134A88FD2477C
330
3858DFB861C84D9E
100
AcDbEntity
  8
0
100
AcDbBlockEnd
  0
BLOCK
  5
10C134A88FD282D8
330
3858DFB861C84D9F
100
AcDbEntity
  8
0
100
AcDbBlockBegin
  2
FIN3
 70
     0
 10
0.0
 20
0.0
 30
0.0
  3
FIN3
  1

  0
ARC
  5
10C134A88FD282D9
330
3858DFB861C84D9F
100
AcDbEntity
  8
0
100
AcDbCircle
 10
-0.0833881848780046
 20
0.2520955863118852
 30
0.0
 40
0.2314382559824545
100
AcDbArc
 50
247.4598533587452
 51
278.8150299352324
  0
ARC
  5
10C134A88FD282DA
330
3858DFB861C84D9F
100
AcDbEntity
  8
0
100
AcDbCircle
 10
-0.0833881848780046
 20
-0.2520955863118701
 30
0.0
 40
0.2314382559824545
100
AcDbArc
 50
81.18497006476763
 51
112.5401466412548
  0
ARC
  5
10C134A88FD282DB
330
3858DFB861C84D9F
100
AcDbEntity
  8
0
100
AcDbCircle
 10
-0.0762543785873441
 20
0.1375863229987206
 30
0.0
 40
0.094712010493142
100
AcDbArc
 50
199.7571364140546
 51
293.822344468626
  0
ARC
  5
10C134A88FD282DC
330
3858DFB861C84D9F
100
AcDbEntity
  8
0
100
AcDbCircle
 10
-0.0762543785873441
 20
-0.1375863229987051
 30
0.0
 40
0.094712010493142
100
AcDbArc
 50
66.17765553137402
 51
160.2428635859453
  0
LINE
  5
10C134A88FD282DD
330
3858DFB861C84D9F
100
AcDbEntity
  8
0
100
AcDbLine
 10
-0.0379999999999993
 20
0.000000000000006
 30
0.0
 11
-0.1829999999999988
 21
0.000000000000006
 31
0.0
  0
LINE
  5
10C134A88FD282DE
330
3858DFB861C84D9F
100
AcDbEntity
  8
0
100
AcDbLine
 10
-0.0130000000000007
 20
0.0940000000000072
 30
0.0
 11
-0.0130000000000007
 21
-0.0939999999999917
 31
0.0
  0
LINE
  5
10C134A88FD282DF
330
3858DFB861C84D9F
100
AcDbEntity
  8
0
100
AcDbLine
 10
-0.0130000000000007
 20
-0.0939999999999917
 30
0.0
 11
-0.0379999999999993
 21
-0.0939999999999917
 31
0.0
  0
LINE
  5
10C134A88FD282E0
330
3858DFB861C84D9F
100
AcDbEntity
  8
0
100
AcDbLine
 10
-0.0130000000000007
 20
0.0940000000000072
 30
0.0
 11
-0.0379999999999993
 21
0.0940000000000072
 31
0.0
  0
LINE
  5
10C134A88FD282E1
330
3858DFB861C84D9F
100
AcDbEntity
  8
0
100
AcDbLine
 10
-0.0379999999999993
 20
-0.0939999999999917
 30
0.0
 11
-0.0379999999999993
 21
0.0940000000000072
 31
0.0
  0
ENDBLK
  5
10C134A88FD282E2
330
3858DFB861C84D9F
100
AcDbEntity
  8
0
100
AcDbBlockEnd
  0
BLOCK
  5
10C134A8D26D2D82
330
3858DFB861C84DA0
100
AcDbEntity
  8
0
100
AcDbBlockBegin
  2
ST
 70
     0
 10
0.0
 20
0.0
 30
0.0
  3
ST
  1

  0
LWPOLYLINE
  5
10C134A8D26D2D83
330
3858DFB861C84DA0
100
AcDbEntity
  8
0
100
AcDbPolyline
 90
       45
 70
     1
 43
0.0
 10
1.234786682698467
 20
0.3524279393825913
 42
0.4400105308918274
 10
1.218479346557252
 20
0.3374850189112148
 10
1.218479346557252
 20
0.2775999405325678
 42
0.3888787318529865
 10
1.232172010416037
 20
0.2626570200611913
 10
1.259786682698466
 20
0.2602410492894949
 42
-0.3888787318529864
 10
1.273479346557251
 20
0.2452981288181188
 10
1.27347934655725
 20
0.2101758940167313
 42
-0.4400105308918369
 10
1.257172010416035
 20
0.1952329735453553
 10
1.099172010416037
 20
0.2090561823824517
 42
-0.3888787318529865
 10
1.085479346557252
 20
0.2239991028538282
 10
1.085479346557252
 20
0.2591213376552148
 42
-0.4400105308918369
 10
1.101786682698467
 20
0.2740642581265908
 10
1.124172010416033
 20
0.2721057957219912
 42
0.4400105308918016
 10
1.140479346557248
 20
0.2870487161933655
 10
1.140479346557257
 20
0.3469337945720126
 42
0.388878731853029
 10
1.126786682698472
 20
0.3618767150433912
 10
0.8466077891297757
 20
0.3863891919898883
 42
0.4400105308918331
 10
0.8303004529885606
 20
0.3714462715185123
 10
0.8303004529885598
 20
0.2489490231179547
 42
-0.4400105308918324
 10
0.8139931168473445
 20
0.2340061026465787
 10
0.7789931168473454
 20
0.2370682058699858
 42
-0.3888787318529864
 10
0.7653004529885603
 20
0.2520111263413618
 10
0.7653004529885603
 20
0.3797576945534749
 42
0.3888787318529871
 10
0.7516077891297753
 20
0.3947006150248513
 10
0.4767866826984699
 20
0.4187443463352421
 42
0.4400105308918361
 10
0.4604793465572548
 20
0.4038014258638656
 10
0.4604793465572539
 20
0.2813041774633085
 42
-0.4400105308918274
 10
0.4441720104160392
 20
0.266361256991932
 10
0.3961720104160369
 20
0.270560712841176
 42
-0.3888787318529956
 10
0.3824793465572513
 20
0.2855036333125525
 10
0.3824793465572522
 20
0.4725538614312299
 42
-0.4400105308918325
 10
0.4150940188396817
 20
0.502439702373982
 10
1.101479346557252
 20
0.4423887673881688
 42
-1.0
 10
1.257479346557251
 20
0.4423887673881688
 10
1.257479346557251
 20
0.4287405358781245
 10
1.89209401883968
 20
0.3732189463461935
 42
-0.3888787318529782
 10
1.91947934655725
 20
0.3433331054034419
 10
1.919479346557253
 20
0.2393887673881689
 42
0.4142135623730863
 10
1.934479346557253
 20
0.2243887673881697
 10
1.951479346557253
 20
0.2243887673881693
 42
-1.000000000000035
 10
1.951479346557253
 20
0.174388767388169
 10
1.869479346557253
 20
0.1743887673881703
 42
-0.4142135623730776
 10
1.854479346557254
 20
0.18938876738817
 10
1.854479346557253
 20
0.2844668888145048
 42
0.3888787318529864
 10
1.840786682698469
 20
0.2994098092858808
  0
ENDBLK
  5
10C134A8D26D2DB2
330
3858DFB861C84DA0
100
AcDbEntity
  8
0
100
AcDbBlockEnd
  0
BLOCK
  5
10C134A8D27CBBC3
330
3858DFB861C84DA1
100
AcDbEntity
  8
0
100
AcDbBlockBegin
  2
B1692
 70
     0
 10
0.0
 20
0.0
 30
0.0
  3
B1692
  1

  0
LWPOLYLINE
  5
10C134A8D27CBC5D
330
3858DFB861C84DA1
100
AcDbEntity
  8
0
100
AcDbPolyline
 90
       63
 70
     1
 43
0.0
 10
-2.215119207268861
 20
0.7435123868790843
 10
-2.14511920726886
 20
0.7435123868790843
 42
-0.4142135623730951
 10
-2.13011920726886
 20
0.7285123868790842
 10
-2.130119207268861
 20
0.4148822366928129
 42
0.4142135623730951
 10
-2.115119207268861
 20
0.3998822366928127
 10
0.0321192072688588
 20
0.3998822366928132
 42
0.4142135623730982
 10
0.0471192072688593
 20
0.4148822366928134
 10
0.0471192072688558
 20
0.7291157330535874
 42
-0.4142135623731004
 10
0.0621192072688563
 20
0.7441157330535875
 10
0.1444589532310125
 20
0.7441157330535862
 42
-0.2679491924311219
 10
0.1574493342877785
 20
0.7366157330535859
 10
0.207390132572681
 20
0.6501157330535872
 10
0.1471192072688572
 20
0.6501157330535872
 10
0.1471192072688581
 20
0.4148822366928134
 42
0.414213562373093
 10
0.1621192072688578
 20
0.3998822366928132
 10
0.9401192072688537
 20
0.3998822366928132
 42
0.414213562373093
 10
0.9551192072688534
 20
0.4148822366928134
 10
0.9551192072688552
 20
0.6501157330535872
 10
0.8951192072688547
 20
0.6501157330535872
 10
0.9450600055537581
 20
0.7366157330535868
 42
-0.2679491924311207
 10
0.9580503866105241
 20
0.7441157330535866
 10
1.005119207268852
 20
0.7441157330535866
 42
-0.4142135623730943
 10
1.020119207268852
 20
0.7291157330535865
 10
1.020119207268854
 20
0.0150000000000006
 42
0.4142135623730948
 10
1.035119207268855
 20
0.0000000000000004
 10
1.896880792731141
 20
0.0000000000000018
 42
0.4142135623730969
 10
1.911880792731141
 20
0.0150000000000019
 10
1.91188079273114
 20
0.1100000000000021
 42
-0.4142135623730992
 10
1.926880792731139
 20
0.1250000000000022
 10
1.996880792731139
 20
0.1250000000000018
 42
-0.4142135623730935
 10
2.011880792731139
 20
0.1100000000000016
 10
2.011880792731139
 20
-0.509999999999998
 42
-0.4142135623730951
 10
1.996880792731139
 20
-0.5249999999999982
 10
1.926880792731142
 20
-0.5249999999999982
 42
-0.4142135623730935
 10
1.911880792731142
 20
-0.509999999999998
 10
1.91188079273114
 20
-0.1149999999999998
 42
0.414213562373093
 10
1.89688079273114
 20
-0.0999999999999997
 10
1.564880792731139
 20
-0.0999999999999997
 42
0.4142135623730951
 10
1.549880792731139
 20
-0.1149999999999998
 10
1.549880792731139
 20
-1.285000000000001
 42
-0.4142135623730951
 10
1.534880792731139
 20
-1.300000000000001
 10
1.464880792731139
 20
-1.300000000000001
 42
-0.4142135623730959
 10
1.449880792731139
 20
-1.285000000000001
 10
1.449880792731144
 20
-0.1149999999999971
 42
0.4142135623730966
 10
1.434880792731144
 20
-0.099999999999997
 10
-0.1751192072688585
 20
-0.0999999999999997
 42
0.4142135623730936
 10
-0.1901192072688582
 20
-0.1149999999999998
 10
-0.1901192072688627
 20
-1.234999999999998
 42
0.414213562373065
 10
-0.1751192072688648
 20
-1.249999999999999
 10
-0.1651192072688632
 20
-1.25
 42
-0.9999999999993603
 10
-0.1651192072688632
 20
-1.299999999999997
 10
-0.4751192072688602
 20
-1.299999999999999
 42
-0.4142135623730977
 10
-0.4901192072688608
 20
-1.284999999999999
 10
-0.490119207268859
 20
-0.1000000000000014
 10
-2.115119207268859
 20
-0.1000000000000032
 42
0.4142135623730945
 10
-2.130119207268859
 20
-0.1150000000000033
 10
-2.13011920726886
 20
-1.234999999999999
 42
0.4142135623731265
 10
-2.115119207268859
 20
-1.249999999999999
 10
-2.105119207268861
 20
-1.249999999999998
 42
-0.9999999999997156
 10
-2.105119207268861
 20
-1.299999999999998
 10
-2.21511920726886
 20
-1.3
 42
-0.4142135623731013
 10
-2.23011920726886
 20
-1.285
 10
-2.230119207268861
 20
0.7285123868790842
 42
-0.4142135623730951
  0
LWPOLYLINE
  5
10C134A8D27CBC83
330
3858DFB861C84DA1
100
AcDbEntity
  8
0
100
AcDbPolyline
 90
        8
 70
     1
 43
0.0
 10
0.9051192072688545
 20
0.0000000000000013
 10
-0.9051192072688539
 20
-0.0000000000000013
 42
-0.4142135623730948
 10
-0.9201192072688542
 20
0.0149999999999988
 10
-0.9201192072688545
 20
0.284882236692813
 42
-0.4142135623730966
 10
-0.9051192072688545
 20
0.2998822366928131
 10
0.9051192072688563
 20
0.2998822366928095
 42
-0.4142135623730964
 10
0.9201192072688568
 20
0.2848822366928094
 10
0.920119207268855
 20
0.0150000000000015
 42
-0.4142135623730927
  0
LWPOLYLINE
  5
10C134A8D27CBC8F
330
3858DFB861C84DA1
100
AcDbEntity
  8
0
100
AcDbPolyline
 90
        8
 70
     1
 43
0.0
 10
-0.2901192072688596
 20
-0.1150000000000015
 10
-0.2901192072688579
 20
-1.185000000000001
 42
-0.4142135623730953
 10
-0.3051192072688584
 20
-1.200000000000001
 10
-0.3751192072688578
 20
-1.200000000000001
 42
-0.4142135623730945
 10
-0.3901192072688575
 20
-1.185000000000001
 10
-0.3901192072688593
 20
-0.1150000000000015
 42
-0.4142135623730956
 10
-0.3751192072688596
 20
-0.1000000000000014
 10
-0.3051192072688593
 20
-0.1000000000000014
 42
-0.4142135623730948
  0
LWPOLYLINE
  5
10C134A8D27CBC89
330
3858DFB861C84DA1
100
AcDbEntity
  8
0
100
AcDbPolyline
 90
        8
 70
     1
 43
0.0
 10
-1.020119207268855
 20
0.2848822366928112
 10
-1.020119207268855
 20
0.0149999999999984
 42
-0.4142135623730935
 10
-1.035119207268855
 20
-0.0000000000000018
 10
-2.115119207268859
 20
-0.0000000000000071
 42
-0.4142135623730959
 10
-2.13011920726886
 20
0.014999999999993
 10
-2.13011920726886
 20
0.2848822366928112
 42
-0.4142135623730959
 10
-2.11511920726886
 20
0.2998822366928113
 10
-1.035119207268855
 20
0.2998822366928113
 42
-0.4142135623730951
  0
ENDBLK
  5
10C134A8D27CEF66
330
3858DFB861C84DA1
100
AcDbEntity
  8
0
100
AcDbBlockEnd
  0
BLOCK
  5
10C134A8D27D0164
330
3858DFB861C84DA2
100
AcDbEntity
  8
0
100
AcDbBlockBegin
  2
B1693
 70
     0
 10
0.0
 20
0.0
 30
0.0
  3
B1693
  1

  0
LWPOLYLINE
  5
10C134A8D27D022D
330
3858DFB861C84DA2
100
AcDbEntity
  8
0
100
AcDbPolyline
 90
       63
 70
     1
 43
0.0
 10
0.015000000000009
 20
1.676375736685273
 10
0.015000000000009
 20
0.9572220483532539
 42
0.3881415872739853
 10
0.0286543861214765
 20
0.9422825261624376
 10
1.125238414537716
 20
0.843512386879086
 10
1.640000000000002
 20
0.8435123868790878
 42
0.414213562373093
 10
1.655000000000002
 20
0.858512386879088
 10
1.655000000000005
 20
1.726375736685274
 42
-0.4142135623730966
 10
1.670000000000005
 20
1.741375736685274
 10
1.98
 20
1.741375736685272
 42
-0.9999999999999998
 10
1.98
 20
1.691375736685272
 10
1.969999999999998
 20
1.691375736685273
 42
0.4142135623730917
 10
1.955
 20
1.676375736685272
 10
1.955000000000003
 20
0.9572220483532545
 42
0.3881415872739835
 10
1.968654386121471
 20
0.9422825261624382
 10
3.065238414537713
 20
0.843512386879086
 10
3.580000000000001
 20
0.843512386879086
 42
0.4142135623730951
 10
3.595
 20
0.8585123868790862
 10
3.595
 20
1.726375736685273
 42
-0.4142135623730951
 10
3.610000000000001
 20
1.741375736685273
 10
3.680000000000006
 20
1.741375736685273
 42
-0.4142135623730951
 10
3.695000000000005
 20
1.726375736685273
 10
3.695000000000005
 20
0.8585123868790853
 42
0.4142135623730951
 10
3.710000000000004
 20
0.8435123868790853
 10
4.042000000000001
 20
0.8435123868790853
 42
0.4142135623730951
 10
4.057
 20
0.8585123868790853
 10
4.057
 20
1.128512386879084
 42
-0.4142135623730951
 10
4.072
 20
1.143512386879084
 10
4.141999999999999
 20
1.143512386879084
 42
-0.4142135623730951
 10
4.156999999999998
 20
1.128512386879084
 10
4.156999999999998
 20
0.7585123868790822
 42
-0.4142135623730951
 10
4.141999999999999
 20
0.7435123868790821
 10
3.180238414537715
 20
0.7435123868790821
 42
0.4142135623730951
 10
3.165238414537714
 20
0.728512386879082
 10
3.165238414537714
 20
0.0143966538254983
 42
-0.4142135623730806
 10
3.150238414537716
 20
-0.0006033461745014
 10
3.103169593879384
 20
-0.0006033461745041
 42
-0.267949192431158
 10
3.090179212822617
 20
0.0068966538254971
 10
3.040238414537721
 20
0.0933966538254985
 10
3.100238414537715
 20
0.0933966538254985
 10
3.100238414537717
 20
0.215491572909317
 42
0.3871964689404554
 10
3.086633120502755
 20
0.2304265920010722
 10
2.308633120502761
 20
0.3030800806999379
 42
0.4417568417886708
 10
2.292238414537722
 20
0.2881450616081835
 10
2.292238414537715
 20
0.0933966538254985
 10
2.352509339841544
 20
0.0933966538254985
 10
2.302916883632901
 20
0.0074999999999879
 42
-0.2679491924311324
 10
2.289926502576134
 20
-0.0000000000000124
 10
2.207238414537718
 20
-0.000000000000012
 42
-0.4142135623730939
 10
2.192238414537717
 20
0.0149999999999881
 10
2.192238414537717
 20
0.3002851047069646
 42
0.387196468940453
 10
2.178633120502756
 20
0.3152201237987198
 10
1.294166072597574
 20
0.3978160321142723
 10
0.0299999999999998
 20
0.3978160321142723
 42
0.4142135623730951
 10
0.0149999999999997
 20
0.3828160321142726
 10
0.0150000000000001
 20
0.0150000000000001
 42
-0.4142135623731002
 10
0.0
 20
0.0
 10
-0.0699999999999985
 20
0.0000000000000013
 42
-0.4142135623730904
 10
-0.0849999999999982
 20
0.015000000000001
 10
-0.0849999999999982
 20
1.726375736685273
 42
-0.414213562373096
 10
-0.0699999999999985
 20
1.741375736685273
 10
0.0400000000000009
 20
1.741375736685273
 42
-0.9999999999999998
 10
0.0400000000000009
 20
1.691375736685273
 10
0.0300000000000087
 20
1.691375736685273
 42
0.4142135623730898
  0
LWPOLYLINE
  5
10C134A8D27D0264
330
3858DFB861C84DA2
100
AcDbEntity
  8
0
100
AcDbPolyline
 90
        8
 70
     1
 43
0.0
 10
0.0313456138785333
 20
0.8416353077162895
 10
1.111345613878539
 20
0.7443589042106838
 42
-0.3881415872739872
 10
1.125000000000007
 20
0.7294193820198674
 10
1.125000000000005
 20
0.5128160321142717
 42
-0.4142135623730927
 10
1.110000000000005
 20
0.497816032114272
 10
0.0300000000000003
 20
0.497816032114272
 42
-0.4142135623730959
 10
0.0150000000000001
 20
0.5128160321142721
 10
0.015000000000001
 20
0.826695785525473
 42
-0.4407752194266969
  0
LWPOLYLINE
  5
10C134A8D27D09B1
330
3858DFB861C84DA2
100
AcDbEntity
  8
0
100
AcDbPolyline
 90
       14
 70
     1
 43
0.0
 10
1.955
 20
0.8266957855254739
 10
1.955
 20
0.7585123868790875
 42
-0.4142135623730956
 10
1.94
 20
0.7435123868790874
 10
1.240000000000004
 20
0.7435123868790919
 42
0.4142135623730943
 10
1.225000000000004
 20
0.7285123868790917
 10
1.225000000000002
 20
0.5128160321142721
 42
0.4142135623730974
 10
1.240000000000002
 20
0.497816032114272
 10
1.298126317508893
 20
0.497816032114272
 42
-0.0232829299002691
 10
1.299521023473932
 20
0.4977510512060271
 10
3.048843708572679
 20
0.3343906451231318
 42
0.4417568417886811
 10
3.065238414537716
 20
0.3493256642148865
 10
3.065238414537718
 20
0.7293979078450788
 42
0.3881415872739863
 10
3.051584028416252
 20
0.7443374300358952
 10
1.971345613878533
 20
0.8416353077162902
 42
0.4407752194266977
  0
LWPOLYLINE
  5
10C134A8D27D0254
330
3858DFB861C84DA2
100
AcDbEntity
  8
0
100
AcDbPolyline
 90
        8
 70
     1
 43
0.0
 10
1.840000000000002
 20
0.8435123868790842
 10
1.770000000000003
 20
0.8435123868790842
 42
-0.4142135623730951
 10
1.755000000000002
 20
0.8585123868790844
 10
1.755000000000002
 20
1.626375736685274
 42
-0.4142135623730951
 10
1.770000000000003
 20
1.641375736685274
 10
1.840000000000002
 20
1.641375736685274
 42
-0.4142135623730935
 10
1.855000000000002
 20
1.626375736685274
 10
1.855000000000002
 20
0.8585123868790844
 42
-0.4142135623730951
  0
ENDBLK
  5
10C134A8D27D1284
330
3858DFB861C84DA2
100
AcDbEntity
  8
0
100
AcDbBlockEnd
  0
BLOCK
  5
10C134A8D27D1304
330
3858DFB861C84DA3
100
AcDbEntity
  8
0
100
AcDbBlockBegin
  2
B1681A
 70
     0
 10
0.0
 20
0.0
 30
0.0
  3
B1681A
  1

  0
LWPOLYLINE
  5
10C134A8D27D1305
330
3858DFB861C84DA3
100
AcDbEntity
  8
0
100
AcDbPolyline
 90
       46
 70
     1
 43
0.0
 10
-1.484999999999999
 20
-0.7500000000000063
 10
-0.2604999999999986
 20
-0.7500000000000009
 42
0.414213562373095
 10
-0.2454999999999998
 20
-0.7350000000000004
 10
-0.2454999999999998
 20
-0.7149999999999981
 42
0.4142135623730864
 10
-0.2605000000000004
 20
-0.6999999999999984
 10
-0.2729999999999997
 20
-0.6999999999999976
 42
-0.4142135623730994
 10
-0.2880000000000002
 20
-0.6849999999999979
 10
-0.2880000000000002
 20
-0.6649999999999974
 42
-0.4142135623731038
 10
-0.2729999999999997
 20
-0.6499999999999968
 10
-0.093
 20
-0.6499999999999986
 42
-0.4142135623731039
 10
-0.0779999999999994
 20
-0.6649999999999983
 10
-0.0779999999999994
 20
-0.6849999999999988
 42
-0.4142135623730951
 10
-0.093
 20
-0.6999999999999984
 10
-0.1054999999999993
 20
-0.6999999999999993
 42
0.4142135623730994
 10
-0.1204999999999998
 20
-0.714999999999999
 10
-0.1204999999999998
 20
-0.7349999999999995
 42
0.4142135623730908
 10
-0.1054999999999993
 20
-0.7499999999999992
 10
-0.0150000000000006
 20
-0.7499999999999983
 42
0.4142135623731037
 10
0.0
 20
-0.7349999999999986
 10
0.0
 20
0.7349999999999977
 42
0.4142135623730951
 10
-0.0150000000000006
 20
0.7499999999999974
 10
-0.1054999999999993
 20
0.7499999999999974
 42
0.4142135623730994
 10
-0.1204999999999998
 20
0.7349999999999977
 10
-0.1204999999999998
 20
0.7149999999999928
 42
0.4142135623730951
 10
-0.1054999999999993
 20
0.6999999999999931
 10
-0.093
 20
0.699999999999994
 42
-0.4142135623730821
 10
-0.0779999999999994
 20
0.6849999999999943
 10
-0.0780000000000012
 20
0.6649999999999939
 42
-0.4142135623730951
 10
-0.093
 20
0.6499999999999942
 10
-0.2729999999999997
 20
0.6499999999999942
 42
-0.4142135623730951
 10
-0.2880000000000002
 20
0.6649999999999939
 10
-0.2880000000000002
 20
0.6849999999999934
 42
-0.4142135623730951
 10
-0.2729999999999997
 20
0.6999999999999931
 10
-0.2604999999999986
 20
0.6999999999999922
 42
0.4142135623730776
 10
-0.2454999999999998
 20
0.7149999999999919
 10
-0.2454999999999998
 20
0.7349999999999977
 42
0.414213562373117
 10
-0.2604999999999986
 20
0.7499999999999974
 10
-1.485000000000001
 20
0.7499999999999974
 42
0.4142135623731037
 10
-1.5
 20
0.7349999999999977
 10
-1.5
 20
0.5004951190918901
 10
-0.7380000000000014
 20
0.5004951190918901
 42
-0.4142135623731037
 10
-0.7230000000000008
 20
0.4854951190918904
 10
-0.7230000000000008
 20
-0.4845048809081103
 42
-0.4142135623731038
 10
-0.7380000000000014
 20
-0.49950488090811
 10
-1.499999999999998
 20
-0.49950488090811
 10
-1.5
 20
-0.7350000000000066
 42
0.4142135623730951
  0
LWPOLYLINE
  5
10C134A8D27D1335
330
3858DFB861C84DA3
100
AcDbEntity
  8
0
100
AcDbPolyline
 90
       32
 70
     1
 43
0.0
 10
-0.6450000000000014
 20
0.6569999999999974
 10
-0.6449999999999996
 20
-0.6570000000000036
 42
0.4142135623730911
 10
-0.6300000000000008
 20
-0.6720000000000042
 10
-0.5600000000000005
 20
-0.6720000000000042
 42
0.4142135623730966
 10
-0.5450000000000017
 20
-0.6570000000000036
 10
-0.5450000000000017
 20
-0.5869999999999998
 42
-0.4142135623730935
 10
-0.5300000000000012
 20
-0.5720000000000001
 10
-0.4820000000000011
 20
-0.5719999999999992
 42
-0.4142135623730971
 10
-0.4670000000000006
 20
-0.5869999999999998
 10
-0.4670000000000006
 20
-0.657000000000001
 42
0.4142135623730925
 10
-0.452
 20
-0.6720000000000006
 10
-0.3810000000000002
 20
-0.6720000000000015
 42
0.4142135623730966
 10
-0.3659999999999997
 20
-0.6570000000000018
 10
-0.3659999999999997
 20
-0.586999999999998
 42
-0.414213562373096
 10
-0.3509999999999991
 20
-0.5719999999999974
 10
-0.093
 20
-0.5719999999999992
 42
0.4142135623730969
 10
-0.0779999999999994
 20
-0.5569999999999986
 10
-0.078000000000003
 20
0.5569999999999951
 42
0.4142135623730943
 10
-0.0930000000000018
 20
0.5719999999999948
 10
-0.3509999999999991
 20
0.5719999999999948
 42
-0.4142135623730939
 10
-0.3659999999999997
 20
0.5869999999999945
 10
-0.3659999999999997
 20
0.6569999999999983
 42
0.4142135623730951
 10
-0.3810000000000002
 20
0.671999999999998
 10
-0.452
 20
0.671999999999998
 42
0.4142135623730964
 10
-0.4670000000000006
 20
0.6569999999999983
 10
-0.4670000000000006
 20
0.5869999999999953
 42
-0.4142135623730966
 10
-0.4819999999999994
 20
0.5719999999999957
 10
-0.5300000000000012
 20
0.5719999999999957
 42
-0.4142135623730964
 10
-0.5450000000000017
 20
0.5869999999999953
 10
-0.545
 20
0.6569999999999974
 42
0.4142135623730941
 10
-0.5600000000000005
 20
0.6719999999999971
 10
-0.6300000000000008
 20
0.6719999999999971
 42
0.4142135623730984
  0
LWPOLYLINE
  5
10C134A8D27D1357
330
3858DFB861C84DA3
100
AcDbEntity
  8
0
100
AcDbPolyline
 90
        8
 70
     1
 43
0.0
 10
-1.407
 20
-0.5775048809081112
 10
-0.7379999999999996
 20
-0.5775048809081094
 42
-0.4142135623730933
 10
-0.7230000000000008
 20
-0.5925048809081091
 10
-0.722999999999999
 20
-0.657000000000001
 42
-0.4142135623730951
 10
-0.7379999999999996
 20
-0.6720000000000006
 10
-1.407000000000001
 20
-0.6720000000000042
 42
-0.4142135623731023
 10
-1.422
 20
-0.6570000000000036
 10
-1.422
 20
-0.5925048809081109
 42
-0.4142135623730862
  0
LWPOLYLINE
  5
10C134A8D27D1361
330
3858DFB861C84DA3
100
AcDbEntity
  8
0
100
AcDbPolyline
 90
        8
 70
     1
 43
0.0
 10
-0.7230000000000008
 20
0.6569999999999983
 10
-0.7230000000000008
 20
0.5934951190918909
 42
-0.4142135623730943
 10
-0.7380000000000014
 20
0.5784951190918913
 10
-1.407
 20
0.5784951190918895
 42
-0.4142135623730959
 10
-1.422
 20
0.5934951190918892
 10
-1.422
 20
0.6569999999999965
 42
-0.4142135623730943
 10
-1.407
 20
0.6719999999999962
 10
-0.7380000000000014
 20
0.671999999999998
 42
-0.4142135623730959
  0
INSERT
  5
10C134A8D27D136B
330
3858DFB861C84DA3
100
AcDbEntity
  8
10
100
AcDbBlockReference
  2
LEGS
 10
-1.499999999999998
 20
-0.4995048809081109
 30
0.0
 50
180.0
  0
ENDBLK
  5
10C134A8D27D136C
330
3858DFB861C84DA3
100
AcDbEntity
  8
0
100
AcDbBlockEnd
  0
BLOCK
  5
10C134A8D27D84DF
330
3858DFB861C84DA4
100
AcDbEntity
  8
0
100
AcDbBlockBegin
  2
SH-12
 70
     0
 10
0.0
 20
0.0
 30
0.0
  3
SH-12
  1

  0
LWPOLYLINE
  5
10C134A8D27D84E0
330
3858DFB861C84DA4
100
AcDbEntity
  8
0
100
AcDbPolyline
 90
       31
 70
     0
 43
0.0
 10
-0.3147028923269275
 20
-0.1340829587781354
 10
-0.3607028923269269
 20
-0.1340829587781354
 42
-0.4142135623730951
 10
-0.390702892326928
 20
-0.1040829587781342
 10
-0.390702892326928
 20
-0.0740829587781331
 10
-0.390702892326928
 20
0.1059170412218648
 10
-0.390702892326928
 20
0.135917041221866
 42
-0.4142135623730951
 10
-0.3607028923269269
 20
0.1659170412218671
 10
0.1942971076730941
 20
0.1659170412218671
 42
-0.4142135623730604
 10
0.2092971076730947
 20
0.1509170412218665
 10
0.2092971076730947
 20
0.0981676635573372
 10
0.2192971076730714
 20
0.0881676635573428
 10
0.2093976127364598
 20
0.0782681686207312
 10
0.2192971076730714
 20
0.0683686736841196
 10
0.2093976127364598
 20
0.058469178747508
 10
0.2192971076730714
 20
0.0485696838108964
 10
0.2093976127364598
 20
0.0386701888742849
 10
0.2192971076730714
 20
0.0287706939376733
 10
0.2093976127364598
 20
0.0188711990010617
 10
0.2192971076730714
 20
0.0089717040644501
 10
0.2093976127364598
 20
-0.0009277908721614
 10
0.2192971076730714
 20
-0.010827285808773
 10
0.2092971076730947
 20
-0.0208272858087764
 10
0.2092971076730947
 20
-0.0740829587781331
 42
0.4142135623730951
 10
0.2242971076730953
 20
-0.0890829587781337
 10
0.3984607932590904
 20
-0.0890829587781337
 42
0.5122765682506594
 10
0.4126856480872192
 20
-0.0693233889320553
 10
0.3704666401298056
 20
0.0649844624691234
 42
-0.9999984116242863
 10
0.4178828228900926
 20
0.080849695289368
 10
0.4667132904333898
 20
-0.0732177259578801
 42
-0.5236410168809399
 10
0.4245695877933713
 20
-0.1340829587781354
 10
-0.3147030920386413
 20
-0.1340829587781354
  0
LWPOLYLINE
  5
10C134A8D27D8501
330
3858DFB861C84DA4
100
AcDbEntity
  8
0
100
AcDbPolyline
 90
        8
 70
     1
 43
0.0
 10
0.1492971076730924
 20
-0.0890829587781337
 10
-0.3307028923269257
 20
-0.0890829587781337
 42
-0.4142135623730946
 10
-0.3457028923269263
 20
-0.0740829587781331
 10
-0.3457028923269263
 20
0.1059170412218648
 42
-0.4142135623730958
 10
-0.3307028923269257
 20
0.1209170412218654
 10
0.1492971076730924
 20
0.1209170412218654
 42
-0.4142135623730951
 10
0.164297107673093
 20
0.1059170412218648
 10
0.164297107673093
 20
-0.0740829587781331
 42
-0.4142135623730951
  0
ENDBLK
  5
10C134A8D27D850B
330
3858DFB861C84DA4
100
AcDbEntity
  8
0
100
AcDbBlockEnd
  0
BLOCK
  5
10C134A8D27DC1F5
330
3858DFB861C84DA5
100
AcDbEntity
  8
0
100
AcDbBlockBegin
  2
B2434
 70
     0
 10
0.0
 20
0.0
 30
0.0
  3
B2434
  1

  0
LWPOLYLINE
  5
10C134A8D27DF186
330
3858DFB861C84DA5
100
AcDbEntity
  8
0
100
AcDbPolyline
 90
        4
 70
     1
 43
0.0
 10
0.0449999999999999
 20
-0.1050000000000004
 10
0.0449999999999991
 20
0.1049999999999995
 10
0.5550000000000006
 20
0.1049999999999995
 10
0.5550000000000006
 20
-0.1050000000000004
  0
LWPOLYLINE
  5
10C134A8D27DF160
330
3858DFB861C84DA5
100
AcDbEntity
  8
0
100
AcDbPolyline
 90
       36
 70
     0
 43
0.0
 10
1.361500000000001
 20
-0.1050000000000004
 42
-2.414213562373079
 10
1.3165
 20
-0.0599999999999734
 10
1.3165
 20
0.0219999999999989
 42
0.4142135623730951
 10
1.3015
 20
0.0369999999999995
 10
0.8382669896670771
 20
0.0369999999999995
 42
0.5122765682506679
 10
0.8240421348389839
 20
0.0172404301539229
 10
0.8601656212423858
 20
-0.0907212904617709
 42
-0.5122765682506687
 10
0.8174910567581061
 20
-0.1499999999999999
 10
0.0149999999999979
 20
-0.1499999999999999
 42
-0.4142135623730988
 10
-0.0000000000000018
 20
-0.1349999999999993
 10
0.0000000000000018
 20
0.1349999999999993
 42
-0.4142135623730915
 10
0.0150000000000015
 20
0.149999999999999
 10
0.5839999999999997
 20
0.149999999999999
 42
-0.4142135623730933
 10
0.5999999999999997
 20
0.1339999999999999
 10
0.6000000000000006
 20
0.0824999999999978
 10
0.6100000000000004
 20
0.0724999999999989
 10
0.6000000000000006
 20
0.0624999999999987
 10
0.6100000000000004
 20
0.0524999999999989
 10
0.6000000000000006
 20
0.0424999999999987
 10
0.6100000000000004
 20
0.0324999999999989
 10
0.6000000000000006
 20
0.0225
 10
0.6100000000000004
 20
0.0124999999999997
 10
0.6000000000000006
 20
0.0024999999999999
 10
0.6100000000000004
 20
-0.0075000000000003
 10
0.6000000000000006
 20
-0.0175000000000001
 10
0.6100000000000004
 20
-0.027499999999999
 10
0.6000000000000006
 20
-0.0374999999999992
 10
0.6000000000000006
 20
-0.0899999999999999
 42
0.4142135623730956
 10
0.6150000000000011
 20
-0.105
 10
0.7916547423441429
 20
-0.1050000000000004
 42
0.5122765682506659
 10
0.8058795971722361
 20
-0.0852404301539234
 10
0.7609408313210056
 20
0.0490673835898727
 42
-0.5122765682506668
 10
0.7846489227011606
 20
0.0820000000000003
 10
1.316500000000001
 20
0.081999999999999
 42
-0.4142135623730948
 10
1.361500000000001
 20
0.0369999999999995
 10
1.361500000000001
 20
-0.1050000298023233
  0
ENDBLK
  5
10C134A8D27DF18D
330
3858DFB861C84DA5
100
AcDbEntity
  8
0
100
AcDbBlockEnd
  0
BLOCK
  5
10C134A8D27DF190
330
3858DFB861C84DA6
100
AcDbEntity
  8
0
100
AcDbBlockBegin
  2
BOWSPRNG
 70
     0
 10
0.0
 20
0.0
 30
0.0
  3
BOWSPRNG
  1

  0
LINE
  5
10C134A8D27DF191
330
3858DFB861C84DA6
100
AcDbEntity
  8
0
100
AcDbLine
 10
0.0
 20
0.1414869710433781
 30
0.0
 11
0.1884816530823556
 21
0.1414869710433781
 31
0.0
  0
LINE
  5
10C134A8D27DF192
330
3858DFB861C84DA6
100
AcDbEntity
  8
0
100
AcDbLine
 10
0.1884816530823556
 20
-0.1347829909236489
 30
0.0
 11
0.0
 21
-0.1347829909236489
 31
0.0
  0
LINE
  5
10C134A8D27DF193
330
3858DFB861C84DA6
100
AcDbEntity
  8
DIM
100
AcDbLine
 10
0.1884816530823556
 20
-0.0594810897857352
 30
0.0
 11
0.1314110192717894
 21
-0.0594810897857352
 31
0.0
  0
LINE
  5
10C134A8D27DF194
330
3858DFB861C84DA6
100
AcDbEntity
  8
DIM
100
AcDbLine
 10
0.1884816530823556
 20
-0.1210917361713029
 30
0.0
 11
0.1026151470932515
 21
-0.1210917361713029
 31
0.0
  0
LINE
  5
10C134A8D27DF195
330
3858DFB861C84DA6
100
AcDbEntity
  8
DIM
100
AcDbLine
 10
0.1884816530823556
 20
-0.1005548540427803
 30
0.0
 11
0.1060208291803004
 21
-0.1005548540427803
 31
0.0
  0
LINE
  5
10C134A8D27DF196
330
3858DFB861C84DA6
100
AcDbEntity
  8
DIM
100
AcDbLine
 10
0.1884816530823556
 20
-0.0800179719142578
 30
0.0
 11
0.1208599945043289
 21
-0.0800179719142578
 31
0.0
  0
LINE
  5
10C134A8D27DF197
330
3858DFB861C84DA6
100
AcDbEntity
  8
DIM
100
AcDbLine
 10
0.1884816530823556
 20
-0.0389442076572126
 30
0.0
 11
0.138553767596413
 21
-0.0389442076572126
 31
0.0
  0
LINE
  5
10C134A8D27DF198
330
3858DFB861C84DA6
100
AcDbEntity
  8
DIM
100
AcDbLine
 10
0.1884816530823556
 20
-0.0184073255286901
 30
0.0
 11
0.1427485235943759
 21
-0.0184073255286901
 31
0.0
  0
LINE
  5
10C134A8D27DF199
330
3858DFB861C84DA6
100
AcDbEntity
  8
DIM
100
AcDbLine
 10
0.1884816530823556
 20
0.0021295565998325
 30
0.0
 11
0.1442267714870749
 21
0.0021295565998325
 31
0.0
  0
LINE
  5
10C134A8D27DF19A
330
3858DFB861C84DA6
100
AcDbEntity
  8
DIM
100
AcDbLine
 10
0.1884816530823556
 20
0.0226664387283551
 30
0.0
 11
0.1430641938599955
 21
0.0226664387283551
 31
0.0
  0
LINE
  5
10C134A8D27DF19B
330
3858DFB861C84DA6
100
AcDbEntity
  8
DIM
100
AcDbLine
 10
0.1884816530823556
 20
0.0432033208568776
 30
0.0
 11
0.1392015146375769
 21
0.0432033208568776
 31
0.0
  0
LINE
  5
10C134A8D27DF19C
330
3858DFB861C84DA6
100
AcDbEntity
  8
DIM
100
AcDbLine
 10
0.1884816530823556
 20
0.0637402029854002
 30
0.0
 11
0.1324282969616277
 21
0.0637402029854002
 31
0.0
  0
LINE
  5
10C134A8D27DF19D
330
3858DFB861C84DA6
100
AcDbEntity
  8
DIM
100
AcDbLine
 10
0.1884816530823556
 20
0.0842770851139228
 30
0.0
 11
0.1223180930001266
 21
0.0842770851139228
 31
0.0
  0
LINE
  5
10C134A8D27DF19E
330
3858DFB861C84DA6
100
AcDbEntity
  8
DIM
100
AcDbLine
 10
0.1884816530823556
 20
0.1048139672424453
 30
0.0
 11
0.1080587092028686
 21
0.1048139672424453
 31
0.0
  0
LINE
  5
10C134A8D27DF19F
330
3858DFB861C84DA6
100
AcDbEntity
  8
DIM
100
AcDbLine
 10
0.1884816530823556
 20
0.1253508493709678
 30
0.0
 11
0.1055501608787477
 21
0.1253508493709678
 31
0.0
  0
LINE
  5
10C134A8D27DF1A0
330
3858DFB861C84DA6
100
AcDbEntity
  8
0
100
AcDbLine
 10
0.1884816530823556
 20
0.1414869710433781
 30
0.0
 11
0.1884816530823556
 21
-0.1347829909236489
 31
0.0
  0
ENDBLK
  5
10C134A8D27DF1A1
330
3858DFB861C84DA6
100
AcDbEntity
  8
0
100
AcDbBlockEnd
  0
BLOCK
  5
10C134A91507980F
330
3858DFB861C84DA7
100
AcDbEntity
  8
0
100
AcDbBlockBegin
  2
B1690
 70
     0
 10
0.0
 20
0.0
 30
0.0
  3
B1690
  1

  0
LWPOLYLINE
  5
10C134A91507A110
330
3858DFB861C84DA7
100
AcDbEntity
  8
0
100
AcDbPolyline
 90
       57
 70
     1
 43
0.0
 10
0.0150000000000004
 20
0.3828160321142708
 10
1.278467205848528
 20
0.3828160321142708
 42
-0.0232829299002696
 10
1.279861911813567
 20
0.3827510512060255
 10
2.163633120502757
 20
0.3002201237987196
 42
-0.387196468940453
 10
2.177238414537718
 20
0.2852851047069644
 10
2.177238414537718
 20
-0.0000000000000124
 42
0.414213562373093
 10
2.192238414537719
 20
-0.0150000000000126
 10
2.274926502576136
 20
-0.015000000000013
 42
0.2679491924311334
 10
2.287916883632902
 20
-0.0075000000000127
 10
2.337509339841545
 20
0.0783966538254979
 10
2.277238414537714
 20
0.0783966538254979
 10
2.277238414537723
 20
0.2731450616081825
 42
-0.4417568417886687
 10
2.293633120502763
 20
0.2880800806999369
 10
3.071633120502754
 20
0.2154265920010712
 42
-0.3871964689404538
 10
3.085238414537714
 20
0.2004915729093164
 10
3.085238414537716
 20
0.0783966538254974
 10
3.025238414537723
 20
0.0783966538254983
 10
3.075179212822616
 20
-0.0081033461745035
 42
0.2679491924311667
 10
3.088169593879385
 20
-0.0156033461745042
 10
3.135238414537719
 20
-0.0156033461745007
 42
0.4142135623730732
 10
3.150238414537717
 20
-0.000603346174501
 10
3.150238414537717
 20
0.7135123868790854
 42
-0.4142135623730956
 10
3.165238414537716
 20
0.7285123868790851
 10
4.127000000000002
 20
0.7285123868790833
 42
0.4142135623730956
 10
4.142000000000001
 20
0.7435123868790839
 10
4.142000000000003
 20
1.113512386879086
 42
0.4142135623730956
 10
4.127000000000002
 20
1.128512386879086
 10
3.695
 20
1.128512386879086
 42
-0.4142135623730951
 10
3.680000000000001
 20
1.143512386879086
 10
3.680000000000001
 20
1.711375736685277
 42
0.4142135623730951
 10
3.665
 20
1.726375736685277
 10
3.595
 20
1.726375736685277
 42
0.4142135623730951
 10
3.580000000000001
 20
1.711375736685277
 10
3.580000000000001
 20
0.8435123868790853
 42
-0.4142135623730951
 10
3.565000000000001
 20
0.8285123868790854
 10
3.050912580546423
 20
0.8285123868790854
 42
-0.0224608632813908
 10
3.049566966667891
 20
0.8285728646882692
 10
1.940000000000002
 20
0.9285123868790794
 10
1.940000000000004
 20
1.711375736685278
 42
0.4142135623730982
 10
1.925000000000004
 20
1.726375736685278
 10
1.655000000000001
 20
1.726375736685275
 42
0.4142135623730924
 10
1.640000000000001
 20
1.711375736685275
 10
1.640000000000003
 20
0.8435123868790878
 42
-0.4142135623730945
 10
1.625000000000003
 20
0.8285123868790872
 10
1.110912580546423
 20
0.8285123868790854
 42
-0.0224608632813919
 10
1.109566966667891
 20
0.8285728646882692
 10
0.0136543861214713
 20
0.9272825261624376
 42
-0.3881415872739853
 10
0.0000000000000033
 20
0.9422220483532534
 10
0.0000000000000033
 20
1.711375736685275
 42
0.4142135623730951
 10
-0.0149999999999955
 20
1.726375736685275
 10
-0.0849999999999975
 20
1.726375736685274
 42
0.4142135623730935
 10
-0.0999999999999981
 20
1.711375736685275
 10
-0.0999999999999981
 20
0.0000000000000004
 42
0.4142135623730951
 10
-0.0849999999999975
 20
-0.0149999999999993
 10
-0.014999999999999
 20
-0.0149999999999993
 42
0.4142135623730951
 10
-0.0000000000000002
 20
0.0000000000000004
 10
-0.0000000000000002
 20
0.3678160321142712
 42
-0.4142135623730951
  0
LWPOLYLINE
  5
10C134A91507A15E
330
3858DFB861C84DA7
100
AcDbEntity
  8
0
100
AcDbPolyline
 90
       11
 70
     1
 43
0.0
 10
0.2431409309725143
 20
0.7968145193827128
 42
5.515851778248902
 10
0.3417854804732971
 20
0.7973226968091765
 10
1.096345613878539
 20
0.7293589042106841
 42
-0.3881415872739881
 10
1.110000000000007
 20
0.7144193820198672
 10
1.110000000000005
 20
0.4978160321142729
 42
-0.4142135623730917
 10
1.095000000000005
 20
0.4828160321142723
 10
0.0150000000000004
 20
0.4828160321142723
 42
-0.4142135623730953
 10
-0.0000000000000002
 20
0.497816032114272
 10
-0.0000000000000002
 20
0.8116957855254739
 42
-0.4407752194266988
 10
0.016345613878533
 20
0.8266353077162897
 10
0.2431409309725143
 20
0.8062076847729414
  0
LWPOLYLINE
  5
10C134A91507A167
330
3858DFB861C84DA7
100
AcDbEntity
  8
0
100
AcDbPolyline
 90
        8
 70
     1
 43
0.0
 10
0.2831729823370128
 20
0.7272123868790863
 42
0.3232115984538587
 10
0.2314409309725149
 20
0.6754803355145885
 42
-0.9229582069909055
 10
0.2314409309725149
 20
0.6555444382435849
 42
0.3232115984538586
 10
0.2831729823370128
 20
0.6038123868790862
 42
-0.9229582069909088
 10
0.3031088796080172
 20
0.6038123868790862
 42
0.3232115984538586
 10
0.3548409309725151
 20
0.6555444382435849
 42
-0.9229582069909064
 10
0.3548409309725151
 20
0.6754803355145885
 42
0.3232115984538589
 10
0.3031088796080172
 20
0.7272123868790863
 42
-0.9229582069909088
  0
LWPOLYLINE
  5
10C134A91507A175
330
3858DFB861C84DA7
100
AcDbEntity
  8
0
100
AcDbPolyline
 90
       15
 70
     0
 43
0.0
 10
1.940000000000001
 20
0.7285123868790886
 10
1.915583637469218
 20
0.7285123868790895
 42
-1.620434031860936
 10
1.664416362530784
 20
0.7285123868790886
 10
1.225000000000005
 20
0.7285123868790913
 42
0.4142135623730917
 10
1.210000000000005
 20
0.7135123868790916
 10
1.210000000000001
 20
0.497816032114272
 42
0.4142135623731035
 10
1.225000000000002
 20
0.4828160321142714
 10
1.283825184257947
 20
0.4828160321142714
 10
3.033843708572678
 20
0.3193906451231316
 42
0.4417568417886836
 10
3.050238414537718
 20
0.334325664214886
 10
3.050238414537716
 20
0.7143979078450787
 42
0.3881415872739837
 10
3.036584028416248
 20
0.7293374300358955
 10
1.956345613878533
 20
0.8266353077162897
 42
0.4407752194266976
 10
1.940000000000001
 20
0.8116957855254728
 10
1.940000000000001
 20
0.7283649781863458
  0
LWPOLYLINE
  5
10C134A91507A1BE
330
3858DFB861C84DA7
100
AcDbEntity
  8
0
100
AcDbPolyline
 90
        8
 70
     1
 43
0.0
 10
1.780032051364499
 20
0.7272123868790846
 42
0.3232115984538587
 10
1.728300000000001
 20
0.6754803355145862
 42
-0.9229582069909055
 10
1.728300000000001
 20
0.6555444382435827
 42
0.3232115984538586
 10
1.7800320513645
 20
0.6038123868790844
 42
-0.9229582069909088
 10
1.799967948635503
 20
0.6038123868790844
 42
0.3232115984538586
 10
1.851700000000001
 20
0.6555444382435827
 42
-0.9229582069909055
 10
1.851700000000002
 20
0.6754803355145862
 42
0.3232115984538589
 10
1.799967948635503
 20
0.7272123868790846
 42
-0.9229582069909096
  0
LWPOLYLINE
  5
10C134A91507A196
330
3858DFB861C84DA7
100
AcDbEntity
  8
0
100
AcDbPolyline
 90
        6
 70
     1
 43
0.0
 10
3.680000000000003
 20
1.013512386879078
 10
3.680000000000003
 20
0.843512386879086
 42
0.4142135623730951
 10
3.695000000000002
 20
0.8285123868790854
 10
3.827653335998846
 20
0.8285123868790854
 42
-0.4815844788802372
 10
3.73485722375022
 20
1.028512386879062
 10
3.695000000000009
 20
1.028512386879079
 42
0.4142135623732159
  0
LWPOLYLINE
  5
10C134A91507A190
330
3858DFB861C84DA7
100
AcDbEntity
  8
0
100
AcDbPolyline
 90
        6
 70
     1
 43
0.0
 10
4.042000000000003
 20
1.013512386879078
 10
4.042000000000003
 20
0.8435123868790878
 42
-0.4142135623731368
 10
4.027000000000001
 20
0.8285123868790883
 10
3.89434666400116
 20
0.8285123868791078
 42
0.4815844788802296
 10
3.987142776249786
 20
1.028512386879062
 10
4.026999999999997
 20
1.028512386879078
 42
-0.4142135623732189
  0
LWPOLYLINE
  5
10C134A91507A19C
330
3858DFB861C84DA7
100
AcDbEntity
  8
0
100
AcDbPolyline
 90
        8
 70
     1
 43
0.0
 10
3.922700000000004
 20
0.9754803355145881
 42
0.3232115984538589
 10
3.870967948635504
 20
1.027212386879086
 42
-0.9229582069909088
 10
3.851032051364501
 20
1.027212386879086
 42
0.3232115984538587
 10
3.799300000000004
 20
0.9754803355145881
 42
-0.9229582069909055
 10
3.799300000000004
 20
0.9555444382435847
 42
0.3232115984538586
 10
3.851032051364501
 20
0.9038123868790858
 42
-0.9229582069909088
 10
3.870967948635504
 20
0.9038123868790858
 42
0.3232115984538586
 10
3.922700000000004
 20
0.9555444382435847
 42
-0.9229582069909064
  0
LWPOLYLINE
  5
10C134A91507A186
330
3858DFB861C84DA7
100
AcDbEntity
  8
0
100
AcDbPolyline
 90
        8
 70
     1
 43
0.0
 10
1.740000000000001
 20
1.611375736685276
 10
1.74
 20
0.8435123868790878
 42
0.4142135623730951
 10
1.755
 20
0.8285123868790872
 10
1.825000000000002
 20
0.8285123868790883
 42
0.4142135623730951
 10
1.840000000000003
 20
0.8435123868790878
 10
1.840000000000003
 20
1.611375736685276
 42
0.4142135623730951
 10
1.825000000000002
 20
1.626375736685276
 10
1.755000000000001
 20
1.626375736685277
 42
0.4142135623730948
  0
ENDBLK
  5
10C134A91507ABCE
330
3858DFB861C84DA7
100
AcDbEntity
  8
0
100
AcDbBlockEnd
  0
BLOCK
  5
10C134A915080407
330
3858DFB861C84DA8
100
AcDbEntity
  8
0
100
AcDbBlockBegin
  2
B1797A
 70
     0
 10
0.0
 20
0.0
 30
0.0
  3
B1797A
  1

  0
LWPOLYLINE
  5
10C134A915080408
330
3858DFB861C84DA8
100
AcDbEntity
  8
0
100
AcDbPolyline
 90
       36
 70
     1
 43
0.0
 10
0.4359999999999982
 20
0.25
 10
0.466999999999997
 20
0.2189999999999994
 10
0.466999999999997
 20
0.0309999999999997
 10
0.4359999999999982
 20
-0.0000000000000009
 10
0.2959999999999976
 20
-0.0000000000000009
 42
0.4142135623731038
 10
0.2810000000000006
 20
-0.0150000000000006
 10
0.2810000000000006
 20
-0.0849999999999991
 42
-0.4142135623730864
 10
0.266
 20
-0.0999999999999997
 10
0.1049999999999986
 20
-0.0999999999999997
 42
-0.4142135623730863
 10
0.0899999999999981
 20
-0.085
 10
0.0899999999999981
 20
-0.0650000000000013
 42
-0.4142135623731297
 10
0.1049999999999986
 20
-0.0500000000000007
 10
0.141
 20
-0.0500000000000007
 42
0.4142135623730951
 10
0.155999999999997
 20
-0.0350000000000002
 10
0.155999999999997
 20
-0.0150000000000006
 42
0.4142135623730951
 10
0.141
 20
0.0
 10
-0.1410000000000009
 20
0.0
 42
0.4142135623730863
 10
-0.1560000000000006
 20
-0.0150000000000006
 10
-0.1559999999999997
 20
-0.0350000000000002
 42
0.4142135623730951
 10
-0.1410000000000009
 20
-0.0500000000000007
 10
-0.1050000000000013
 20
-0.0500000000000007
 42
-0.4142135623731122
 10
-0.0900000000000008
 20
-0.0650000000000013
 10
-0.0900000000000008
 20
-0.085
 42
-0.4142135623730864
 10
-0.1050000000000013
 20
-0.0999999999999997
 10
-0.2660000000000009
 20
-0.0999999999999997
 42
-0.4142135623730863
 10
-0.2810000000000015
 20
-0.0849999999999991
 10
-0.2810000000000015
 20
-0.0150000000000006
 42
0.414213562373108
 10
-0.2960000000000011
 20
-0.0000000000000009
 10
-0.4360000000000009
 20
-0.0000000000000009
 10
-0.4670000000000006
 20
0.0309999999999997
 10
-0.4670000000000006
 20
0.2189999999999994
 10
-0.4360000000000009
 20
0.25
 10
-0.3420000000000005
 20
0.25
 10
-0.3420000000000005
 20
0.125
 10
0.341999999999997
 20
0.125
 10
0.341999999999997
 20
0.2499999999999991
  0
LWPOLYLINE
  5
10C134A91508042E
330
3858DFB861C84DA8
100
AcDbEntity
  8
10
100
AcDbPolyline
 90
        6
 70
     0
 43
0.0
 10
0.3420000000000041
 20
0.1949384518251875
 42
-0.4610293300478307
 10
0.3110534228525008
 20
0.1867960567335576
 42
0.0907189955188198
 10
-0.0487973660893335
 20
0.2322963371386111
 10
-0.0466133660717834
 20
0.2013733660018753
 42
-0.0876286894586541
 10
0.2901812669588501
 20
0.1605301370424552
 42
-0.7147056417256375
 10
0.2815333017602004
 20
0.125
  0
LWPOLYLINE
  5
10C134A915080436
330
3858DFB861C84DA8
100
AcDbEntity
  8
10
100
AcDbPolyline
 90
        6
 70
     0
 43
0.0
 10
-0.3420000000000005
 20
0.1949384518251858
 42
0.7261001173355835
 10
-0.3233766233766229
 20
0.1868151111879141
 42
-0.1197681351361282
 10
0.0576474406025778
 20
0.2661798617956066
 10
0.0566962524436114
 20
0.235194458117645
 42
0.1200407692938528
 10
-0.291762152025143
 20
0.1659462971281851
 42
0.6805798019766392
 10
-0.281533301760204
 20
0.125
  0
ENDBLK
  5
10C134A91508043E
330
3858DFB861C84DA8
100
AcDbEntity
  8
0
100
AcDbBlockEnd
  0
BLOCK
  5
10C134A9150805BB
330
3858DFB861C84DA9
100
AcDbEntity
  8
0
100
AcDbBlockBegin
  2
B2233
 70
     0
 10
0.0
 20
0.0
 30
0.0
  3
B2233
  1

  0
LWPOLYLINE
  5
10C134A9150805BE
330
3858DFB861C84DA9
100
AcDbEntity
  8
0
100
AcDbPolyline
 90
        4
 70
     1
 43
0.0
 10
0.5550000000000002
 20
-0.105
 10
0.0450000000000013
 20
-0.1049999999999995
 10
0.0449999999999999
 20
0.1049999999999995
 10
0.5550000000000006
 20
0.1050000000000004
  0
LWPOLYLINE
  5
10C134A91508063C
330
3858DFB861C84DA9
100
AcDbEntity
  8
0
100
AcDbPolyline
 90
       32
 70
     0
 43
0.0
 10
0.0
 20
-0.1425000000000001
 42
0.414213562373094
 10
0.0074999999999994
 20
-0.1499999999999999
 42
-0.4142135623730938
 10
0.0
 20
-0.1425000000000001
 10
0.0
 20
-0.0899999999999999
 10
0.0
 20
0.0899999999999999
 10
-0.0000000000000009
 20
0.1349999999999993
 42
-0.4142135623730951
 10
0.0149999999999997
 20
0.1499999999999995
 10
0.5849999999999991
 20
0.1499999999999999
 42
-0.4142135623730864
 10
0.5999999999999997
 20
0.1349999999999998
 10
0.5999999999999997
 20
0.0822506223354767
 10
0.6099999999999995
 20
0.0722506223354769
 10
0.6001005050633879
 20
0.0623511273988653
 10
0.6099999999999995
 20
0.0524516324622537
 10
0.6001005050633879
 20
0.0425521375256421
 10
0.6099999999999995
 20
0.0326526425890306
 10
0.6001005050633879
 20
0.022753147652419
 10
0.6099999999999995
 20
0.0128536527158074
 10
0.6001005050633879
 20
0.0029541577791958
 10
0.6099999999999995
 20
-0.0069453371574157
 10
0.6001005050633879
 20
-0.0168448320940273
 10
0.6099999999999995
 20
-0.0267443270306389
 10
0.5999999999999997
 20
-0.0367443270306387
 10
0.5999999999999997
 20
-0.0899999999999999
 42
0.4142135623730863
 10
0.6150000000000003
 20
-0.105
 10
0.7891636855860354
 20
-0.105
 42
0.5122765682506684
 10
0.8033885404141285
 20
-0.0852404301539234
 10
0.7611695324567176
 20
0.0490674212472579
 42
-0.9999984116243034
 10
0.8085857152169975
 20
0.0649326540675026
 10
0.8574161827603097
 20
-0.0891347671797456
 42
-0.5236410168809397
 10
0.8152724801203046
 20
-0.1499999999999999
 10
0.061
 20
-0.1499999999999999
 10
0.0074999999999994
 20
-0.1499999999999999
  0
ENDBLK
  5
10C134A91508628F
330
3858DFB861C84DA9
100
AcDbEntity
  8
0
100
AcDbBlockEnd
  0
BLOCK
  5
10C134A915086293
330
3858DFB861C84DAA
100
AcDbEntity
  8
0
100
AcDbBlockBegin
  2
B1247
 70
     0
 10
0.0
 20
0.0
 30
0.0
  3
B1247
  1

  0
LWPOLYLINE
  5
10C134A91508904A
330
3858DFB861C84DAA
100
AcDbEntity
  8
0
100
AcDbPolyline
 90
       26
 70
     1
 43
0.0
 10
-0.1050000000000004
 20
-0.1420000000000003
 10
-0.1050000000000004
 20
-0.0920000000000001
 10
-0.0617764788032909
 20
-0.0920000000000005
 42
0.2679491924311238
 10
-0.0487860977465244
 20
-0.0845000000000007
 10
-0.0300000000000003
 20
-0.0519615242270666
 42
-3.732050807568902
 10
0.0299999999999994
 20
-0.0519615242270666
 10
0.0487860977465227
 20
-0.0844999999999998
 42
0.2679491924311214
 10
0.0617764788032886
 20
-0.0920000000000001
 10
0.1049999999999995
 20
-0.0920000000000005
 10
0.1049999999999986
 20
-0.1420000000000003
 10
0.0874999999999995
 20
-0.1419999999999999
 42
1.00000000000001
 10
0.0875000000000004
 20
-0.1820000000000004
 10
0.7050000000000001
 20
-0.1819999999999999
 42
0.9999999999999889
 10
0.7049999999999992
 20
-0.1419999999999999
 10
0.1599999999999992
 20
-0.1419999999999999
 42
-0.4142135623730951
 10
0.1449999999999996
 20
-0.1269999999999998
 10
0.1449999999999996
 20
0.1579999999999995
 42
0.4142135623730956
 10
0.1299999999999999
 20
0.173
 10
-0.1300000000000003
 20
0.173
 42
0.4142135623730945
 10
-0.1450000000000005
 20
0.1579999999999995
 10
-0.1450000000000009
 20
-0.1270000000000002
 42
-0.4142135623730951
 10
-0.160000000000001
 20
-0.1420000000000003
 10
-0.7050000000000001
 20
-0.1419999999999999
 42
1.0
 10
-0.7050000000000001
 20
-0.1819999999999999
 10
-0.0875000000000004
 20
-0.1820000000000004
 42
0.9999999999999662
 10
-0.0875000000000008
 20
-0.1419999999999999
  0
ENDBLK
  5
10C134A915089067
330
3858DFB861C84DAA
100
AcDbEntity
  8
0
100
AcDbBlockEnd
  0
BLOCK
  5
10C134A915089069
330
3858DFB861C84DAB
100
AcDbEntity
  8
0
100
AcDbBlockBegin
  2
B1947
 70
     0
 10
0.0
 20
0.0
 30
0.0
  3
B1947
  1

  0
LWPOLYLINE
  5
10C134A91508A159
330
3858DFB861C84DAB
100
AcDbEntity
  8
0
100
AcDbPolyline
 90
        8
 70
     1
 43
0.0
 10
-0.488
 20
0.5
 10
0.4880000000000005
 20
0.5
 42
-0.4142135623730951
 10
0.5499999999999999
 20
0.4380000000000002
 10
0.5499999999999999
 20
0.0619999999999994
 42
-0.4142135623730951
 10
0.4880000000000005
 20
-0.0000000000000004
 10
-0.488
 20
0.0
 42
-0.4142135623730951
 10
-0.5499999999999999
 20
0.0619999999999998
 10
-0.5499999999999999
 20
0.4380000000000002
 42
-0.4142135623730951
  0
LWPOLYLINE
  5
10C134A91508A15F
330
3858DFB861C84DAB
100
AcDbEntity
  8
0
100
AcDbPolyline
 90
        8
 70
     1
 43
0.0
 10
-0.4850000000000004
 20
0.4500000000000002
 10
0.4850000000000004
 20
0.4500000000000011
 42
-0.4142135623730951
 10
0.5000000000000009
 20
0.435000000000001
 10
0.5000000000000009
 20
0.0649999999999995
 42
-0.4142135623730959
 10
0.4850000000000012
 20
0.0499999999999994
 10
-0.4849999999999999
 20
0.0500000000000007
 42
-0.4142135623730945
 10
-0.5
 20
0.0650000000000008
 10
-0.5000000000000005
 20
0.4350000000000001
 42
-0.4142135623730951
  0
ENDBLK
  5
10C134A91508A521
330
3858DFB861C84DAB
100
AcDbEntity
  8
0
100
AcDbBlockEnd
  0
BLOCK
  5
10C134A9160DE8EE
330
3858DFB861C84DAC
100
AcDbEntity
  8
0
100
AcDbBlockBegin
  2
*X19
 70
     1
 10
0.0
 20
0.0
 30
0.0
  3
*X19
  1

  0
LINE
  5
10C134A9160DE8F0
330
3858DFB861C84DAC
100
AcDbEntity
  8
0
 62
     0
100
AcDbLine
 10
2.355520940221095
 20
2.709074330814369
 30
0.0
 11
2.480520940221095
 21
2.834074330814369
 31
0.0
  0
LINE
  5
10C134A9160DE8F1
330
3858DFB861C84DAC
100
AcDbEntity
  8
0
 62
     0
100
AcDbLine
 10
2.355520940221095
 20
2.797462678462687
 30
0.0
 11
2.480520940221095
 21
2.922462678462688
 31
0.0
  0
LINE
  5
10C134A9160DE8F2
330
3858DFB861C84DAC
100
AcDbEntity
  8
0
 62
     0
100
AcDbLine
 10
2.355520940221095
 20
2.885851026111006
 30
0.0
 11
2.480520940221095
 21
3.010851026111006
 31
0.0
  0
LINE
  5
10C134A9160DE8F3
330
3858DFB861C84DAC
100
AcDbEntity
  8
0
 62
     0
100
AcDbLine
 10
2.355520940221095
 20
2.974239373759325
 30
0.0
 11
2.417359131045459
 21
3.036077564583688
 31
0.0
  0
LINE
  5
10C134A9160DE8F4
330
3858DFB861C84DAC
100
AcDbEntity
  8
0
 62
     0
100
AcDbLine
 10
2.355520940221095
 20
2.620685983166051
 30
0.0
 11
2.480520940221095
 21
2.745685983166051
 31
0.0
  0
LINE
  5
10C134A9160DE8F5
330
3858DFB861C84DAC
100
AcDbEntity
  8
0
 62
     0
100
AcDbLine
 10
2.367007781952502
 20
2.543784477249138
 30
0.0
 11
2.480520940221095
 21
2.657297635517732
 31
0.0
  0
LINE
  5
10C134A9160DE8F6
330
3858DFB861C84DAC
100
AcDbEntity
  8
0
 62
     0
100
AcDbLine
 10
2.44768921693537
 20
2.536077564583688
 30
0.0
 11
2.480520940221095
 21
2.568909287869414
 31
0.0
  0
ENDBLK
  5
10C134A9160DE8F7
330
3858DFB861C84DAC
100
AcDbEntity
  8
0
100
AcDbBlockEnd
  0
BLOCK
  5
10C134A9160DE906
330
3858DFB861C84DAD
100
AcDbEntity
  8
0
100
AcDbBlockBegin
  2
*X20
 70
     1
 10
0.0
 20
0.0
 30
0.0
  3
*X20
  1

  0
LINE
  5
10C134A9160DE908
330
3858DFB861C84DAD
100
AcDbEntity
  8
0
 62
     0
100
AcDbLine
 10
4.016736178065865
 20
2.779299310989407
 30
0.0
 11
4.141736178065865
 21
2.904299310989406
 31
0.0
  0
LINE
  5
10C134A9160DE909
330
3858DFB861C84DAD
100
AcDbEntity
  8
0
 62
     0
100
AcDbLine
 10
4.016736178065865
 20
2.867687658637726
 30
0.0
 11
4.141736178065864
 21
2.992687658637724
 31
0.0
  0
LINE
  5
10C134A9160DE90A
330
3858DFB861C84DAD
100
AcDbEntity
  8
0
 62
     0
100
AcDbLine
 10
4.016736178065865
 20
2.956076006286044
 30
0.0
 11
4.096737736363508
 21
3.036077564583687
 31
0.0
  0
LINE
  5
10C134A9160DE90B
330
3858DFB861C84DAD
100
AcDbEntity
  8
0
 62
     0
100
AcDbLine
 10
4.016736178065865
 20
2.690910963341089
 30
0.0
 11
4.141736178065865
 21
2.815910963341088
 31
0.0
  0
LINE
  5
10C134A9160DE90C
330
3858DFB861C84DAD
100
AcDbEntity
  8
0
 62
     0
100
AcDbLine
 10
4.016736178065865
 20
2.60252261569277
 30
0.0
 11
4.141736178065865
 21
2.72752261569277
 31
0.0
  0
LINE
  5
10C134A9160DE90D
330
3858DFB861C84DAD
100
AcDbEntity
  8
0
 62
     0
100
AcDbLine
 10
4.038679474605102
 20
2.536077564583688
 30
0.0
 11
4.141736178065865
 21
2.639134268044452
 31
0.0
  0
ENDBLK
  5
10C134A9160DE90E
330
3858DFB861C84DAD
100
AcDbEntity
  8
0
100
AcDbBlockEnd
  0
BLOCK
  5
10C134A9160DE91D
330
3858DFB861C84DAE
100
AcDbEntity
  8
0
100
AcDbBlockBegin
  2
*X21
 70
     1
 10
0.0
 20
0.0
 30
0.0
  3
*X21
  1

  0
LINE
  5
10C134A9160DE91F
330
3858DFB861C84DAE
100
AcDbEntity
  8
0
 62
     0
100
AcDbLine
 10
4.114736178065866
 20
1.816639139209587
 30
0.0
 11
4.239736178065864
 21
1.941639139209585
 31
0.0
  0
LINE
  5
10C134A9160DE920
330
3858DFB861C84DAE
100
AcDbEntity
  8
0
 62
     0
100
AcDbLine
 10
4.114736178065866
 20
1.905027486857905
 30
0.0
 11
4.239736178065864
 21
2.030027486857904
 31
0.0
  0
LINE
  5
10C134A9160DE921
330
3858DFB861C84DAE
100
AcDbEntity
  8
0
 62
     0
100
AcDbLine
 10
4.114736178065866
 20
1.993415834506224
 30
0.0
 11
4.186902789051437
 21
2.065582445491795
 31
0.0
  0
LINE
  5
10C134A9160DE922
330
3858DFB861C84DAE
100
AcDbEntity
  8
0
 62
     0
100
AcDbLine
 10
4.114736178065866
 20
1.728250791561269
 30
0.0
 11
4.239736178065864
 21
1.853250791561267
 31
0.0
  0
LINE
  5
10C134A9160DE923
330
3858DFB861C84DAE
100
AcDbEntity
  8
0
 62
     0
100
AcDbLine
 10
4.114736178065866
 20
1.63986244391295
 30
0.0
 11
4.239736178065864
 21
1.764862443912948
 31
0.0
  0
LINE
  5
10C134A9160DE924
330
3858DFB861C84DAE
100
AcDbEntity
  8
0
 62
     0
100
AcDbLine
 10
4.132418827343483
 20
1.569156745542248
 30
0.0
 11
4.239736178065864
 21
1.67647409626463
 31
0.0
  0
LINE
  5
10C134A9160DE925
330
3858DFB861C84DAE
100
AcDbEntity
  8
0
 62
     0
100
AcDbLine
 10
4.217232874941349
 20
1.565582445491795
 30
0.0
 11
4.239736178065864
 21
1.588085748616311
 31
0.0
  0
ENDBLK
  5
10C134A9160DE926
330
3858DFB861C84DAE
100
AcDbEntity
  8
0
100
AcDbBlockEnd
  0
BLOCK
  5
10C134A9160DE935
330
3858DFB861C84DAF
100
AcDbEntity
  8
0
100
AcDbBlockBegin
  2
*X22
 70
     1
 10
0.0
 20
0.0
 30
0.0
  3
*X22
  1

  0
LINE
  5
10C134A9160DE937
330
3858DFB861C84DAF
100
AcDbEntity
  8
0
 62
     0
100
AcDbLine
 10
5.753642257696093
 20
1.776166613521764
 30
0.0
 11
5.878642257696093
 21
1.901166613521765
 31
0.0
  0
LINE
  5
10C134A9160DE938
330
3858DFB861C84DAF
100
AcDbEntity
  8
0
 62
     0
100
AcDbLine
 10
5.753642257696094
 20
1.864554961170083
 30
0.0
 11
5.878642257696093
 21
1.989554961170083
 31
0.0
  0
LINE
  5
10C134A9160DE939
330
3858DFB861C84DAF
100
AcDbEntity
  8
0
 62
     0
100
AcDbLine
 10
5.753642257696094
 20
1.952943308818401
 30
0.0
 11
5.862096126664483
 21
2.06139717778679
 31
0.0
  0
LINE
  5
10C134A9160DE93A
330
3858DFB861C84DAF
100
AcDbEntity
  8
0
 62
     0
100
AcDbLine
 10
5.753642257696094
 20
2.04133165646672
 30
0.0
 11
5.777893046721169
 21
2.065582445491795
 31
0.0
  0
LINE
  5
10C134A9160DE93B
330
3858DFB861C84DAF
100
AcDbEntity
  8
0
 62
     0
100
AcDbLine
 10
5.753642257696093
 20
1.687778265873445
 30
0.0
 11
5.878642257696093
 21
1.812778265873446
 31
0.0
  0
LINE
  5
10C134A9160DE93C
330
3858DFB861C84DAF
100
AcDbEntity
  8
0
 62
     0
100
AcDbLine
 10
5.753642257696093
 20
1.599389918225127
 30
0.0
 11
5.878642257696093
 21
1.724389918225128
 31
0.0
  0
LINE
  5
10C134A9160DE93D
330
3858DFB861C84DAF
100
AcDbEntity
  8
0
 62
     0
100
AcDbLine
 10
5.80822313261108
 20
1.565582445491795
 30
0.0
 11
5.878642257696093
 21
1.636001570576809
 31
0.0
  0
ENDBLK
  5
10C134A9160DE93E
330
3858DFB861C84DAF
100
AcDbEntity
  8
0
100
AcDbBlockEnd
  0
BLOCK
  5
10C134A9160DE94D
330
3858DFB861C84DB0
100
AcDbEntity
  8
0
100
AcDbBlockBegin
  2
*X23
 70
     1
 10
0.0
 20
0.0
 30
0.0
  3
*X23
  1

  0
LINE
  5
10C134A9160DE94F
330
3858DFB861C84DB0
100
AcDbEntity
  8
0
 62
     0
100
AcDbLine
 10
9.744578070651185
 20
7.446481031794906
 30
0.0
 11
9.869578070651186
 21
7.571481031794906
 31
0.0
  0
LINE
  5
10C134A9160DE950
330
3858DFB861C84DB0
100
AcDbEntity
  8
0
 62
     0
100
AcDbLine
 10
9.656189723002867
 20
7.446481031794906
 30
0.0
 11
9.781189723002867
 21
7.571481031794906
 31
0.0
  0
LINE
  5
10C134A9160DE951
330
3858DFB861C84DB0
100
AcDbEntity
  8
0
 62
     0
100
AcDbLine
 10
9.567801375354548
 20
7.446481031794906
 30
0.0
 11
9.69280137535455
 21
7.571481031794906
 31
0.0
  0
LINE
  5
10C134A9160DE952
330
3858DFB861C84DB0
100
AcDbEntity
  8
0
 62
     0
100
AcDbLine
 10
9.564508328937403
 20
7.531576333026079
 30
0.0
 11
9.604413027706231
 21
7.571481031794906
 31
0.0
  0
LINE
  5
10C134A9160DE953
330
3858DFB861C84DB0
100
AcDbEntity
  8
0
 62
     0
100
AcDbLine
 10
9.832966418299504
 20
7.446481031794906
 30
0.0
 11
9.957966418299504
 21
7.571481031794906
 31
0.0
  0
LINE
  5
10C134A9160DE954
330
3858DFB861C84DB0
100
AcDbEntity
  8
0
 62
     0
100
AcDbLine
 10
9.921354765947823
 20
7.446481031794906
 30
0.0
 11
10.04404403279366
 21
7.569170298640746
 31
0.0
  0
LINE
  5
10C134A9160DE955
330
3858DFB861C84DB0
100
AcDbEntity
  8
0
 62
     0
100
AcDbLine
 10
10.00974311359614
 20
7.446481031794906
 30
0.0
 11
10.0645083289374
 21
7.501246247136169
 31
0.0
  0
ENDBLK
  5
10C134A9160DE956
330
3858DFB861C84DB0
100
AcDbEntity
  8
0
100
AcDbBlockEnd
  0
BLOCK
  5
10C134A9160DE965
330
3858DFB861C84DB1
100
AcDbEntity
  8
0
100
AcDbBlockBegin
  2
*X24
 70
     1
 10
0.0
 20
0.0
 30
0.0
  3
*X24
  1

  0
LINE
  5
10C134A9160DE967
330
3858DFB861C84DB1
100
AcDbEntity
  8
0
 62
     0
100
AcDbLine
 10
9.749090750487024
 20
5.771615106312694
 30
0.0
 11
9.874090750487024
 21
5.896615106312694
 31
0.0
  0
LINE
  5
10C134A9160DE968
330
3858DFB861C84DB1
100
AcDbEntity
  8
0
 62
     0
100
AcDbLine
 10
9.660702402838705
 20
5.771615106312694
 30
0.0
 11
9.785702402838706
 21
5.896615106312694
 31
0.0
  0
LINE
  5
10C134A9160DE969
330
3858DFB861C84DB1
100
AcDbEntity
  8
0
 62
     0
100
AcDbLine
 10
9.578264058483279
 20
5.777565109605587
 30
0.0
 11
9.697314055190387
 21
5.896615106312694
 31
0.0
  0
LINE
  5
10C134A9160DE96A
330
3858DFB861C84DB1
100
AcDbEntity
  8
0
 62
     0
100
AcDbLine
 10
9.564508328937405
 20
5.85219772770803
 30
0.0
 11
9.608925707542068
 21
5.896615106312694
 31
0.0
  0
LINE
  5
10C134A9160DE96B
330
3858DFB861C84DB1
100
AcDbEntity
  8
0
 62
     0
100
AcDbLine
 10
9.837479098135341
 20
5.771615106312694
 30
0.0
 11
9.962479098135343
 21
5.896615106312694
 31
0.0
  0
LINE
  5
10C134A9160DE96C
330
3858DFB861C84DB1
100
AcDbEntity
  8
0
 62
     0
100
AcDbLine
 10
9.92586744578366
 20
5.771615106312694
 30
0.0
 11
10.05086744578366
 21
5.896615106312694
 31
0.0
  0
LINE
  5
10C134A9160DE96D
330
3858DFB861C84DB1
100
AcDbEntity
  8
0
 62
     0
100
AcDbLine
 10
10.01425579343198
 20
5.771615106312694
 30
0.0
 11
10.0645083289374
 21
5.82186764181812
 31
0.0
  0
ENDBLK
  5
10C134A9160DE96E
330
3858DFB861C84DB1
100
AcDbEntity
  8
0
100
AcDbBlockEnd
  0
BLOCK
  5
10C134A9160DE973
330
3858DFB861C84DB2
100
AcDbEntity
  8
0
100
AcDbBlockBegin
  2
B1350
 70
     0
 10
0.0
 20
0.0
 30
0.0
  3
B1350
  1

  0
LWPOLYLINE
  5
10C134A9160DF221
330
3858DFB861C84DB2
100
AcDbEntity
  8
0
100
AcDbPolyline
 90
       24
 70
     1
 43
0.0
 10
-0.5367050781143461
 20
-0.8042326718820383
 10
-0.3242013963307513
 20
-0.8611728618045928
 10
-0.3135947946129529
 20
-0.8795440348754667
 10
-0.2952236215420787
 20
-0.8689374331576686
 10
-0.0438822856765375
 20
-0.9347792381596571
 42
0.4931454260313047
 10
-0.0249999999999995
 20
-0.9202903507653212
 10
-0.0249999999999995
 20
-0.5150000000000002
 10
-0.0099999999999998
 20
-0.5
 10
-0.0250000000000004
 20
-0.484999999999999
 10
-0.0250000000000004
 20
-0.2650000000000006
 10
-0.0099999999999998
 20
-0.25
 10
-0.0250000000000004
 20
-0.2349999999999999
 10
-0.0249999999999995
 20
-0.0150000000000001
 42
-0.4142135623730951
 10
-0.0099999999999998
 20
0.0
 10
0.0099999999999998
 20
0.0
 42
-0.4142135623730951
 10
0.0250000000000004
 20
-0.0150000000000001
 10
0.0250000000000004
 20
-0.9854516194073816
 42
-0.493145426031304
 10
0.0061177143234623
 20
-0.9999405068017175
 10
-0.7814778879371112
 20
-0.7904098041814361
 42
-0.4142135623730969
 10
-0.7991484863989631
 20
-0.75980342984536
 10
-0.799143310018061
 20
-0.7597841113288344
 42
-0.4142135623730919
 10
-0.7685369356819854
 20
-0.7421135128669825
 10
-0.5656828529030183
 20
-0.7964681005289629
 10
-0.5550762511852199
 20
-0.8148392735998367
  0
ENDBLK
  5
10C134A9160DF9AA
330
3858DFB861C84DB2
100
AcDbEntity
  8
0
100
AcDbBlockEnd
  0
BLOCK
  5
1921CEECDD4998C0
330
3858DFB861C84DB3
100
AcDbEntity
  8
0
100
AcDbBlockBegin
  2
ROLLER
 70
     0
 10
0.0
 20
0.0
 30
0.0
  3
ROLLER
  1

  0
LWPOLYLINE
  5
21826930A48537AA
330
3858DFB861C84DB3
100
AcDbEntity
  8
0
100
AcDbPolyline
 90
        4
 70
     0
 43
0.0
 10
0.1900000000000013
 20
0.0779980500000246
 10
0.1900000000000013
 20
0.4400000000000031
 10
-0.1899999999999977
 20
0.4400000000000031
 10
-0.1899999999999977
 20
0.0779980500000264
  0
LINE
  5
21826930A48537A9
330
3858DFB861C84DB3
100
AcDbEntity
  8
0
100
AcDbLine
 10
0.0999974999999935
 20
-0.1599960000000102
 30
0.0
 11
0.1299967499999965
 21
-0.1395855688079646
 31
0.0
  0
LINE
  5
21826930A48537A8
330
3858DFB861C84DB3
100
AcDbEntity
  8
0
100
AcDbLine
 10
-0.0999974999999935
 20
-0.1599960000000102
 30
0.0
 11
-0.1299967499999965
 21
-0.1395855688079646
 31
0.0
  0
LINE
  5
21826930A48537A7
330
3858DFB861C84DB3
100
AcDbEntity
  8
0
100
AcDbLine
 10
0.0999975000000078
 20
-0.1599960000000102
 30
0.0
 11
-0.0999974999999935
 21
-0.1599960000000244
 31
0.0
  0
LINE
  5
21826930A48537A6
330
3858DFB861C84DB3
100
AcDbEntity
  8
0
100
AcDbLine
 10
-0.0999974999999935
 20
-0.0899982499999919
 30
0.0
 11
-0.0999974999999935
 21
-0.1599960000000244
 31
0.0
  0
LINE
  5
21826930A48537A5
330
3858DFB861C84DB3
100
AcDbEntity
  8
0
100
AcDbLine
 10
0.0999975000000078
 20
-0.1599960000000102
 30
0.0
 11
0.0999974999999935
 21
-0.0899982499999919
 31
0.0
  0
LINE
  5
21826930A48537A4
330
3858DFB861C84DB3
100
AcDbEntity
  8
0
100
AcDbLine
 10
-0.1299967499999965
 20
-0.0899982499999919
 30
0.0
 11
-0.1299967499999965
 21
-0.1395855688079646
 31
0.0
  0
LINE
  5
21826930A48537A3
330
3858DFB861C84DB3
100
AcDbEntity
  8
0
100
AcDbLine
 10
0.1299967499999965
 20
-0.1395855688079646
 30
0.0
 11
0.1299967499999965
 21
-0.0899982499999919
 31
0.0
  0
LINE
  5
21826930A48537A2
330
3858DFB861C84DB3
100
AcDbEntity
  8
0
100
AcDbLine
 10
-0.25
 20
-0.0899982499999919
 30
0.0
 11
0.25
 21
-0.0899982499999919
 31
0.0
  0
LINE
  5
21826930A48537A1
330
3858DFB861C84DB3
100
AcDbEntity
  8
0
100
AcDbLine
 10
0.25
 20
-0.0899982499999919
 30
0.0
 11
0.25
 21
-0.0000000000000018
 31
0.0
  0
LINE
  5
21826930A48537A0
330
3858DFB861C84DB3
100
AcDbEntity
  8
0
100
AcDbLine
 10
-0.25
 20
0.0000000000000018
 30
0.0
 11
-0.25
 21
-0.0899982499999919
 31
0.0
  0
ENDBLK
  5
21826930A48537B2
330
3858DFB861C84DB3
100
AcDbEntity
  8
0
100
AcDbBlockEnd
  0
BLOCK
  5
218269511EE144DE
330
3858DFB861C84DB4
100
AcDbEntity
  8
0
100
AcDbBlockBegin
  2
ASDTNUM
 70
     2
 10
0.0
 20
0.0
 30
0.0
  3
ASDTNUM
  1

  0
TEXT
  5
218269511EE1823A
330
3858DFB861C84DB4
100
AcDbEntity
  8
THIN
100
AcDbText
 10
13.58214084242182
 20
0.6570694486990832
 30
0.0
 40
0.25
  1
AS
 51
10.0
  7
ROMANS
100
AcDbText
  0
ATTDEF
  5
EA90DCF131A8F60C
330
3858DFB861C84DB4
100
AcDbEntity
  8
THIN
100
AcDbText
 10
1.145491964163355
 20
0.7077964671298738
 30
0.0
 40
0.18
  1

 51
10.0
  7
ROMANS
100
AcDbAttributeDefinition
280
     0
  3
Revision date:
  2
REV:
 70
     0
280
     0
  0
TEXT
  5
EA90DCF131A8F60D
330
3858DFB861C84DB4
100
AcDbEntity
  8
THIN
100
AcDbText
 10
0.3991511953395569
 20
0.7098478649101438
 30
0.0
 40
0.18
  1
REV.
 51
10.0
  7
ROMANS
100
AcDbText
  0
ATTDEF
  5
EA90DCF131A8F60E
330
3858DFB861C84DB4
100
AcDbEntity
  8
THIN
100
AcDbText
 10
14.18958977281909
 20
0.6570000000000001
 30
0.0
 40
0.25
  1

 51
10.0
  7
ROMANS
100
AcDbAttributeDefinition
280
     0
  3
AS Drawing Num.:
  2
AS#
 70
     0
280
     0
  0
ENDBLK
  5
EA90DCF131A8F610
330
3858DFB861C84DB4
100
AcDbEntity
  8
0
100
AcDbBlockEnd
  0
BLOCK
  5
EA90DCF131A8F615
330
3858DFB861C84DB5
100
AcDbEntity
  8
0
100
AcDbBlockBegin
  2
7-8ICPT
 70
     0
 10
0.0
 20
0.0
 30
0.0
  3
7-8ICPT
  1

  0
LINE
  5
3858DFB861C84D0F
330
3858DFB861C84DB5
100
AcDbEntity
  8
XTHIN
100
AcDbLine
 10
0.1687500000000011
 20
0.6519999999999993
 30
0.0
 11
0.1687500000000011
 21
0.0269999999999993
 31
0.0
  0
LINE
  5
3858DFB861C84D0E
330
3858DFB861C84DB5
100
AcDbEntity
  8
XTHIN
100
AcDbLine
 10
0.4587500000000003
 20
0.6789999999999985
 30
0.0
 11
0.4587500000000003
 21
0.6519999999999993
 31
0.0
  0
LINE
  5
3858DFB861C84D0D
330
3858DFB861C84DB5
100
AcDbEntity
  8
XTHIN
100
AcDbLine
 10
0.1287500000000001
 20
0.6789999999999985
 30
0.0
 11
0.1287500000000001
 21
0.0
 31
0.0
  0
LINE
  5
3858DFB861C84D0B
330
3858DFB861C84DB5
100
AcDbEntity
  8
XTHIN
100
AcDbLine
 10
0.4587500000000003
 20
0.0
 30
0.0
 11
0.1287500000000001
 21
0.0
 31
0.0
  0
LINE
  5
3858DFB861C84D09
330
3858DFB861C84DB5
100
AcDbEntity
  8
XTHIN
100
AcDbLine
 10
0.1687500000000011
 20
0.6519999999999993
 30
0.0
 11
0.4587500000000003
 21
0.6519999999999993
 31
0.0
  0
LINE
  5
3858DFB861C84D08
330
3858DFB861C84DB5
100
AcDbEntity
  8
XTHIN
100
AcDbLine
 10
0.4587500000000003
 20
0.6789999999999985
 30
0.0
 11
0.1287500000000001
 21
0.6789999999999985
 31
0.0
  0
SOLID
  5
3858DFB861C84D07
330
3858DFB861C84DB5
100
AcDbEntity
  8
XTHIN
100
AcDbTrace
 10
0.1287500000000001
 20
0.6789999999999985
 30
0.0
 11
0.1687500000000011
 21
0.6519999999999993
 31
0.0
 12
0.4587500000000003
 22
0.6789999999999985
 32
0.0
 13
0.4587500000000003
 23
0.6519999999999993
 33
0.0
  0
LINE
  5
3858DFB861C84D06
330
3858DFB861C84DB5
100
AcDbEntity
  8
XTHIN
100
AcDbLine
 10
0.2387499999999996
 20
0.0519999999999978
 30
0.0
 11
0.2387499999999996
 21
0.6269999999999998
 31
0.0
  0
LINE
  5
3858DFB861C84D05
330
3858DFB861C84DB5
100
AcDbEntity
  8
XTHIN
100
AcDbLine
 10
0.2237500000000008
 20
0.0369999999999973
 30
0.0
 11
0.1787500000000008
 21
0.036999999999999
 31
0.0
  0
ARC
  5
3858DFB861C84D04
330
3858DFB861C84DB5
100
AcDbEntity
  8
XTHIN
100
AcDbCircle
 10
0.2237500000000008
 20
0.0519999999999978
 30
0.0
 40
0.015
100
AcDbArc
 50
269.9999999999996
 51
0.0
  0
LINE
  5
3858DFB861C84D03
330
3858DFB861C84DB5
100
AcDbEntity
  8
XTHIN
100
AcDbLine
 10
0.2237500000000008
 20
0.6419999999999995
 30
0.0
 11
0.1787500000000008
 21
0.6419999999999995
 31
0.0
  0
ARC
  5
3858DFB861C84D02
330
3858DFB861C84DB5
100
AcDbEntity
  8
XTHIN
100
AcDbCircle
 10
0.2237500000000008
 20
0.6269999999999998
 30
0.0
 40
0.015
100
AcDbArc
 50
0.0
 51
90.0
  0
LWPOLYLINE
  5
3858DFB861C84CFD
330
3858DFB861C84DB5
100
AcDbEntity
  8
XTHIN
100
AcDbPolyline
 90
        3
 70
     0
 43
0.0
 10
0.4587500000000003
 20
0.0419999999999989
 10
0.4587500000000003
 20
0.0949999999999998
 10
0.4587500000000003
 20
0.0949999999999989
  0
INSERT
  5
3858DFB861C84CFC
330
3858DFB861C84DB5
100
AcDbEntity
  8
XTHIN
100
AcDbBlockReference
  2
*X29
 10
-0.6261813342587104
 20
-3.643202364619105
 30
0.0
1001
ACAD
1000
HATCH
1002
{
1070
    16
1000
DOTS
1040
0.3
1040
0.7853981633974483
1002
}
  0
SOLID
  5
3858DFB861C84CFB
330
3858DFB861C84DB5
100
AcDbEntity
  8
XTHIN
100
AcDbTrace
 10
0.1287500000000001
 20
0.0
 30
0.0
 11
0.1687500000000011
 21
0.0269999999999993
 31
0.0
 12
0.1287500000000001
 22
0.6789999999999985
 32
0.0
 13
0.1687500000000011
 23
0.6519999999999993
 33
0.0
  0
SOLID
  5
3858DFB861C84CFA
330
3858DFB861C84DB5
100
AcDbEntity
  8
XTHIN
100
AcDbTrace
 10
0.1287500000000001
 20
0.0
 30
0.0
 11
0.1687500000000011
 21
0.0269999999999993
 31
0.0
 12
0.4587500000000003
 22
0.0000000000000009
 32
0.0
 13
0.4587500000000003
 23
0.0269999999999993
 33
0.0
  0
LWPOLYLINE
  5
3858DFB861C84CE8
330
3858DFB861C84DB5
100
AcDbEntity
  8
XTHIN
100
AcDbPolyline
 90
       16
 70
     1
 43
0.0
 10
0.46875
 20
0.036999999999999
 10
0.46875
 20
0.1049999999999986
 10
0.4587500000000003
 20
0.1049999999999986
 10
0.4587500000000003
 20
0.0419999999999981
 42
-0.4142135623730969
 10
0.4537500000000012
 20
0.036999999999999
 10
0.1787500000000008
 20
0.036999999999999
 10
0.1787500000000008
 20
0.6419999999999995
 10
0.4537500000000012
 20
0.6419999999999995
 42
-0.4142135623730951
 10
0.4587500000000003
 20
0.6369999999999996
 10
0.4587500000000003
 20
0.5739999999999981
 10
0.46875
 20
0.5739999999999981
 10
0.46875
 20
0.6419999999999995
 42
0.4142135623730951
 10
0.4587500000000003
 20
0.6519999999999993
 10
0.1687500000000011
 20
0.6519999999999993
 10
0.1687500000000011
 20
0.0269999999999993
 10
0.4587500000000003
 20
0.0269999999999993
 42
0.4142135623730951
  0
ENDBLK
  5
3858DFB861C84D11
330
3858DFB861C84DB5
100
AcDbEntity
  8
0
100
AcDbBlockEnd
  0
BLOCK
  5
3858DFB861C84A0B
330
3858DFB861C84DB6
100
AcDbEntity
  8
0
100
AcDbBlockBegin
  2
*X29
 70
     1
 10
0.0
 20
0.0
 30
0.0
  3
*X29
  1

  0
LINE
  5
3858DFB861C84A0D
330
3858DFB861C84DB6
100
AcDbEntity
  8
0
 62
     0
100
AcDbLine
 10
0.808753380982114
 20
3.937700887732586
 30
0.0
 11
0.808753380982114
 21
3.937700887732586
 31
0.0
  0
LINE
  5
3858DFB861C84A0E
330
3858DFB861C84DB6
100
AcDbEntity
  8
0
 62
     0
100
AcDbLine
 10
0.8220116331293617
 20
3.950959139879834
 30
0.0
 11
0.8220116331293617
 21
3.950959139879834
 31
0.0
  0
LINE
  5
3858DFB861C84A0F
330
3858DFB861C84DB6
100
AcDbEntity
  8
0
 62
     0
100
AcDbLine
 10
0.8352698852766094
 20
3.964217392027082
 30
0.0
 11
0.8352698852766094
 21
3.964217392027082
 31
0.0
  0
LINE
  5
3858DFB861C84A10
330
3858DFB861C84DB6
100
AcDbEntity
  8
0
 62
     0
100
AcDbLine
 10
0.8485281374238573
 20
3.97747564417433
 30
0.0
 11
0.8485281374238573
 21
3.97747564417433
 31
0.0
  0
LINE
  5
3858DFB861C84A11
330
3858DFB861C84DB6
100
AcDbEntity
  8
0
 62
     0
100
AcDbLine
 10
0.861786389571105
 20
3.990733896321578
 30
0.0
 11
0.861786389571105
 21
3.990733896321578
 31
0.0
  0
LINE
  5
3858DFB861C84A12
330
3858DFB861C84DB6
100
AcDbEntity
  8
0
 62
     0
100
AcDbLine
 10
0.8153825070557372
 20
3.970846518100705
 30
0.0
 11
0.8153825070557372
 21
3.970846518100705
 31
0.0
  0
LINE
  5
3858DFB861C84A13
330
3858DFB861C84DB6
100
AcDbEntity
  8
0
 62
     0
100
AcDbLine
 10
0.8286407592029851
 20
3.984104770247953
 30
0.0
 11
0.8286407592029851
 21
3.984104770247953
 31
0.0
  0
LINE
  5
3858DFB861C84A14
330
3858DFB861C84DB6
100
AcDbEntity
  8
0
 62
     0
100
AcDbLine
 10
0.8418990113502328
 20
3.997363022395201
 30
0.0
 11
0.8418990113502328
 21
3.997363022395201
 31
0.0
  0
LINE
  5
3858DFB861C84A15
330
3858DFB861C84DB6
100
AcDbEntity
  8
0
 62
     0
100
AcDbLine
 10
0.8551572634974805
 20
4.010621274542449
 30
0.0
 11
0.8551572634974805
 21
4.010621274542449
 31
0.0
  0
LINE
  5
3858DFB861C84A16
330
3858DFB861C84DB6
100
AcDbEntity
  8
0
 62
     0
100
AcDbLine
 10
0.8087533809821138
 20
3.990733896321577
 30
0.0
 11
0.8087533809821138
 21
3.990733896321577
 31
0.0
  0
LINE
  5
3858DFB861C84A17
330
3858DFB861C84DB6
100
AcDbEntity
  8
0
 62
     0
100
AcDbLine
 10
0.8220116331293615
 20
4.003992148468825
 30
0.0
 11
0.8220116331293615
 21
4.003992148468825
 31
0.0
  0
LINE
  5
3858DFB861C84A18
330
3858DFB861C84DB6
100
AcDbEntity
  8
0
 62
     0
100
AcDbLine
 10
0.8352698852766092
 20
4.017250400616072
 30
0.0
 11
0.8352698852766092
 21
4.017250400616072
 31
0.0
  0
LINE
  5
3858DFB861C84A19
330
3858DFB861C84DB6
100
AcDbEntity
  8
0
 62
     0
100
AcDbLine
 10
0.8485281374238569
 20
4.03050865276332
 30
0.0
 11
0.8485281374238569
 21
4.03050865276332
 31
0.0
  0
LINE
  5
3858DFB861C84A1A
330
3858DFB861C84DB6
100
AcDbEntity
  8
0
 62
     0
100
AcDbLine
 10
0.8617863895711048
 20
4.043766904910567
 30
0.0
 11
0.8617863895711048
 21
4.043766904910567
 31
0.0
  0
LINE
  5
3858DFB861C84A1B
330
3858DFB861C84DB6
100
AcDbEntity
  8
0
 62
     0
100
AcDbLine
 10
0.8153825070557378
 20
4.023879526689697
 30
0.0
 11
0.8153825070557378
 21
4.023879526689697
 31
0.0
  0
LINE
  5
3858DFB861C84A1C
330
3858DFB861C84DB6
100
AcDbEntity
  8
0
 62
     0
100
AcDbLine
 10
0.8286407592029854
 20
4.037137778836944
 30
0.0
 11
0.8286407592029854
 21
4.037137778836944
 31
0.0
  0
LINE
  5
3858DFB861C84A1D
330
3858DFB861C84DB6
100
AcDbEntity
  8
0
 62
     0
100
AcDbLine
 10
0.8418990113502331
 20
4.050396030984192
 30
0.0
 11
0.8418990113502331
 21
4.050396030984192
 31
0.0
  0
LINE
  5
3858DFB861C84A1E
330
3858DFB861C84DB6
100
AcDbEntity
  8
0
 62
     0
100
AcDbLine
 10
0.855157263497481
 20
4.063654283131439
 30
0.0
 11
0.855157263497481
 21
4.063654283131439
 31
0.0
  0
LINE
  5
3858DFB861C84A1F
330
3858DFB861C84DB6
100
AcDbEntity
  8
0
 62
     0
100
AcDbLine
 10
0.8087533809821138
 20
4.043766904910568
 30
0.0
 11
0.8087533809821138
 21
4.043766904910568
 31
0.0
  0
LINE
  5
3858DFB861C84A20
330
3858DFB861C84DB6
100
AcDbEntity
  8
0
 62
     0
100
AcDbLine
 10
0.8220116331293617
 20
4.057025157057815
 30
0.0
 11
0.8220116331293617
 21
4.057025157057815
 31
0.0
  0
LINE
  5
3858DFB861C84A21
330
3858DFB861C84DB6
100
AcDbEntity
  8
0
 62
     0
100
AcDbLine
 10
0.8352698852766094
 20
4.070283409205063
 30
0.0
 11
0.8352698852766094
 21
4.070283409205063
 31
0.0
  0
LINE
  5
3858DFB861C84A22
330
3858DFB861C84DB6
100
AcDbEntity
  8
0
 62
     0
100
AcDbLine
 10
0.8485281374238571
 20
4.083541661352311
 30
0.0
 11
0.8485281374238571
 21
4.083541661352311
 31
0.0
  0
LINE
  5
3858DFB861C84A23
330
3858DFB861C84DB6
100
AcDbEntity
  8
0
 62
     0
100
AcDbLine
 10
0.8617863895711048
 20
4.096799913499558
 30
0.0
 11
0.8617863895711048
 21
4.096799913499558
 31
0.0
  0
LINE
  5
3858DFB861C84A24
330
3858DFB861C84DB6
100
AcDbEntity
  8
0
 62
     0
100
AcDbLine
 10
0.8153825070557378
 20
4.076912535278688
 30
0.0
 11
0.8153825070557378
 21
4.076912535278688
 31
0.0
  0
LINE
  5
3858DFB861C84A25
330
3858DFB861C84DB6
100
AcDbEntity
  8
0
 62
     0
100
AcDbLine
 10
0.8286407592029856
 20
4.090170787425935
 30
0.0
 11
0.8286407592029856
 21
4.090170787425935
 31
0.0
  0
LINE
  5
3858DFB861C84A26
330
3858DFB861C84DB6
100
AcDbEntity
  8
0
 62
     0
100
AcDbLine
 10
0.8418990113502333
 20
4.103429039573183
 30
0.0
 11
0.8418990113502333
 21
4.103429039573183
 31
0.0
  0
LINE
  5
3858DFB861C84A27
330
3858DFB861C84DB6
100
AcDbEntity
  8
0
 62
     0
100
AcDbLine
 10
0.855157263497481
 20
4.11668729172043
 30
0.0
 11
0.855157263497481
 21
4.11668729172043
 31
0.0
  0
LINE
  5
3858DFB861C84A28
330
3858DFB861C84DB6
100
AcDbEntity
  8
0
 62
     0
100
AcDbLine
 10
0.8087533809821136
 20
4.09679991349956
 30
0.0
 11
0.8087533809821136
 21
4.09679991349956
 31
0.0
  0
LINE
  5
3858DFB861C84A29
330
3858DFB861C84DB6
100
AcDbEntity
  8
0
 62
     0
100
AcDbLine
 10
0.8220116331293613
 20
4.110058165646807
 30
0.0
 11
0.8220116331293613
 21
4.110058165646807
 31
0.0
  0
LINE
  5
3858DFB861C84A2A
330
3858DFB861C84DB6
100
AcDbEntity
  8
0
 62
     0
100
AcDbLine
 10
0.8352698852766092
 20
4.123316417794055
 30
0.0
 11
0.8352698852766092
 21
4.123316417794055
 31
0.0
  0
LINE
  5
3858DFB861C84A2B
330
3858DFB861C84DB6
100
AcDbEntity
  8
0
 62
     0
100
AcDbLine
 10
0.8485281374238569
 20
4.136574669941302
 30
0.0
 11
0.8485281374238569
 21
4.136574669941302
 31
0.0
  0
LINE
  5
3858DFB861C84A2C
330
3858DFB861C84DB6
100
AcDbEntity
  8
0
 62
     0
100
AcDbLine
 10
0.8617863895711046
 20
4.14983292208855
 30
0.0
 11
0.8617863895711046
 21
4.14983292208855
 31
0.0
  0
LINE
  5
3858DFB861C84A2D
330
3858DFB861C84DB6
100
AcDbEntity
  8
0
 62
     0
100
AcDbLine
 10
0.8153825070557376
 20
4.129945543867679
 30
0.0
 11
0.8153825070557376
 21
4.129945543867679
 31
0.0
  0
LINE
  5
3858DFB861C84A2E
330
3858DFB861C84DB6
100
AcDbEntity
  8
0
 62
     0
100
AcDbLine
 10
0.8286407592029853
 20
4.143203796014926
 30
0.0
 11
0.8286407592029853
 21
4.143203796014926
 31
0.0
  0
LINE
  5
3858DFB861C84A2F
330
3858DFB861C84DB6
100
AcDbEntity
  8
0
 62
     0
100
AcDbLine
 10
0.8418990113502331
 20
4.156462048162174
 30
0.0
 11
0.8418990113502331
 21
4.156462048162174
 31
0.0
  0
LINE
  5
3858DFB861C84A30
330
3858DFB861C84DB6
100
AcDbEntity
  8
0
 62
     0
100
AcDbLine
 10
0.8551572634974808
 20
4.169720300309421
 30
0.0
 11
0.8551572634974808
 21
4.169720300309421
 31
0.0
  0
LINE
  5
3858DFB861C84A31
330
3858DFB861C84DB6
100
AcDbEntity
  8
0
 62
     0
100
AcDbLine
 10
0.8087533809821135
 20
4.14983292208855
 30
0.0
 11
0.8087533809821135
 21
4.14983292208855
 31
0.0
  0
LINE
  5
3858DFB861C84A32
330
3858DFB861C84DB6
100
AcDbEntity
  8
0
 62
     0
100
AcDbLine
 10
0.8220116331293613
 20
4.163091174235797
 30
0.0
 11
0.8220116331293613
 21
4.163091174235797
 31
0.0
  0
LINE
  5
3858DFB861C84A33
330
3858DFB861C84DB6
100
AcDbEntity
  8
0
 62
     0
100
AcDbLine
 10
0.835269885276609
 20
4.176349426383045
 30
0.0
 11
0.835269885276609
 21
4.176349426383045
 31
0.0
  0
LINE
  5
3858DFB861C84A34
330
3858DFB861C84DB6
100
AcDbEntity
  8
0
 62
     0
100
AcDbLine
 10
0.8485281374238567
 20
4.189607678530292
 30
0.0
 11
0.8485281374238567
 21
4.189607678530292
 31
0.0
  0
LINE
  5
3858DFB861C84A35
330
3858DFB861C84DB6
100
AcDbEntity
  8
0
 62
     0
100
AcDbLine
 10
0.8617863895711044
 20
4.20286593067754
 30
0.0
 11
0.8617863895711044
 21
4.20286593067754
 31
0.0
  0
LINE
  5
3858DFB861C84A36
330
3858DFB861C84DB6
100
AcDbEntity
  8
0
 62
     0
100
AcDbLine
 10
0.8153825070557378
 20
4.18297855245667
 30
0.0
 11
0.8153825070557378
 21
4.18297855245667
 31
0.0
  0
LINE
  5
3858DFB861C84A37
330
3858DFB861C84DB6
100
AcDbEntity
  8
0
 62
     0
100
AcDbLine
 10
0.8286407592029854
 20
4.196236804603917
 30
0.0
 11
0.8286407592029854
 21
4.196236804603917
 31
0.0
  0
LINE
  5
3858DFB861C84A38
330
3858DFB861C84DB6
100
AcDbEntity
  8
0
 62
     0
100
AcDbLine
 10
0.8418990113502331
 20
4.209495056751165
 30
0.0
 11
0.8418990113502331
 21
4.209495056751165
 31
0.0
  0
LINE
  5
3858DFB861C84A39
330
3858DFB861C84DB6
100
AcDbEntity
  8
0
 62
     0
100
AcDbLine
 10
0.855157263497481
 20
4.222753308898412
 30
0.0
 11
0.855157263497481
 21
4.222753308898412
 31
0.0
  0
LINE
  5
3858DFB861C84A3A
330
3858DFB861C84DB6
100
AcDbEntity
  8
0
 62
     0
100
AcDbLine
 10
0.8087533809821136
 20
4.202865930677542
 30
0.0
 11
0.8087533809821136
 21
4.202865930677542
 31
0.0
  0
LINE
  5
3858DFB861C84A3B
330
3858DFB861C84DB6
100
AcDbEntity
  8
0
 62
     0
100
AcDbLine
 10
0.8220116331293613
 20
4.216124182824789
 30
0.0
 11
0.8220116331293613
 21
4.216124182824789
 31
0.0
  0
LINE
  5
3858DFB861C84A3C
330
3858DFB861C84DB6
100
AcDbEntity
  8
0
 62
     0
100
AcDbLine
 10
0.8352698852766092
 20
4.229382434972037
 30
0.0
 11
0.8352698852766092
 21
4.229382434972037
 31
0.0
  0
LINE
  5
3858DFB861C84A3D
330
3858DFB861C84DB6
100
AcDbEntity
  8
0
 62
     0
100
AcDbLine
 10
0.8485281374238569
 20
4.242640687119284
 30
0.0
 11
0.8485281374238569
 21
4.242640687119284
 31
0.0
  0
LINE
  5
3858DFB861C84A3E
330
3858DFB861C84DB6
100
AcDbEntity
  8
0
 62
     0
100
AcDbLine
 10
0.8617863895711046
 20
4.255898939266532
 30
0.0
 11
0.8617863895711046
 21
4.255898939266532
 31
0.0
  0
LINE
  5
3858DFB861C84A3F
330
3858DFB861C84DB6
100
AcDbEntity
  8
0
 62
     0
100
AcDbLine
 10
0.8153825070557372
 20
4.236011561045661
 30
0.0
 11
0.8153825070557372
 21
4.236011561045661
 31
0.0
  0
LINE
  5
3858DFB861C84A40
330
3858DFB861C84DB6
100
AcDbEntity
  8
0
 62
     0
100
AcDbLine
 10
0.8286407592029851
 20
4.249269813192908
 30
0.0
 11
0.8286407592029851
 21
4.249269813192908
 31
0.0
  0
LINE
  5
3858DFB861C84A41
330
3858DFB861C84DB6
100
AcDbEntity
  8
0
 62
     0
100
AcDbLine
 10
0.8418990113502328
 20
4.262528065340156
 30
0.0
 11
0.8418990113502328
 21
4.262528065340156
 31
0.0
  0
LINE
  5
3858DFB861C84A42
330
3858DFB861C84DB6
100
AcDbEntity
  8
0
 62
     0
100
AcDbLine
 10
0.8551572634974805
 20
4.275786317487403
 30
0.0
 11
0.8551572634974805
 21
4.275786317487403
 31
0.0
  0
LINE
  5
3858DFB861C84A43
330
3858DFB861C84DB6
100
AcDbEntity
  8
0
 62
     0
100
AcDbLine
 10
0.8087533809821138
 20
4.255898939266533
 30
0.0
 11
0.8087533809821138
 21
4.255898939266533
 31
0.0
  0
LINE
  5
3858DFB861C84A44
330
3858DFB861C84DB6
100
AcDbEntity
  8
0
 62
     0
100
AcDbLine
 10
0.8220116331293615
 20
4.26915719141378
 30
0.0
 11
0.8220116331293615
 21
4.26915719141378
 31
0.0
  0
LINE
  5
3858DFB861C84A45
330
3858DFB861C84DB6
100
AcDbEntity
  8
0
 62
     0
100
AcDbLine
 10
0.8352698852766092
 20
4.282415443561028
 30
0.0
 11
0.8352698852766092
 21
4.282415443561028
 31
0.0
  0
LINE
  5
3858DFB861C84A46
330
3858DFB861C84DB6
100
AcDbEntity
  8
0
 62
     0
100
AcDbLine
 10
0.8153825070557378
 20
3.917813509511714
 30
0.0
 11
0.8153825070557378
 21
3.917813509511714
 31
0.0
  0
LINE
  5
3858DFB861C84A47
330
3858DFB861C84DB6
100
AcDbEntity
  8
0
 62
     0
100
AcDbLine
 10
0.8286407592029854
 20
3.931071761658962
 30
0.0
 11
0.8286407592029854
 21
3.931071761658962
 31
0.0
  0
LINE
  5
3858DFB861C84A48
330
3858DFB861C84DB6
100
AcDbEntity
  8
0
 62
     0
100
AcDbLine
 10
0.8418990113502331
 20
3.94433001380621
 30
0.0
 11
0.8418990113502331
 21
3.94433001380621
 31
0.0
  0
LINE
  5
3858DFB861C84A49
330
3858DFB861C84DB6
100
AcDbEntity
  8
0
 62
     0
100
AcDbLine
 10
0.855157263497481
 20
3.957588265953458
 30
0.0
 11
0.855157263497481
 21
3.957588265953458
 31
0.0
  0
LINE
  5
3858DFB861C84A4A
330
3858DFB861C84DB6
100
AcDbEntity
  8
0
 62
     0
100
AcDbLine
 10
0.8087533809821135
 20
3.884667879143595
 30
0.0
 11
0.8087533809821135
 21
3.884667879143595
 31
0.0
  0
LINE
  5
3858DFB861C84A4B
330
3858DFB861C84DB6
100
AcDbEntity
  8
0
 62
     0
100
AcDbLine
 10
0.8220116331293613
 20
3.897926131290843
 30
0.0
 11
0.8220116331293613
 21
3.897926131290843
 31
0.0
  0
LINE
  5
3858DFB861C84A4C
330
3858DFB861C84DB6
100
AcDbEntity
  8
0
 62
     0
100
AcDbLine
 10
0.835269885276609
 20
3.911184383438091
 30
0.0
 11
0.835269885276609
 21
3.911184383438091
 31
0.0
  0
LINE
  5
3858DFB861C84A4D
330
3858DFB861C84DB6
100
AcDbEntity
  8
0
 62
     0
100
AcDbLine
 10
0.8485281374238567
 20
3.924442635585339
 30
0.0
 11
0.8485281374238567
 21
3.924442635585339
 31
0.0
  0
LINE
  5
3858DFB861C84A4E
330
3858DFB861C84DB6
100
AcDbEntity
  8
0
 62
     0
100
AcDbLine
 10
0.8617863895711044
 20
3.937700887732587
 30
0.0
 11
0.8617863895711044
 21
3.937700887732587
 31
0.0
  0
LINE
  5
3858DFB861C84A4F
330
3858DFB861C84DB6
100
AcDbEntity
  8
0
 62
     0
100
AcDbLine
 10
0.8153825070557376
 20
3.864780500922723
 30
0.0
 11
0.8153825070557376
 21
3.864780500922723
 31
0.0
  0
LINE
  5
3858DFB861C84A50
330
3858DFB861C84DB6
100
AcDbEntity
  8
0
 62
     0
100
AcDbLine
 10
0.8286407592029853
 20
3.878038753069971
 30
0.0
 11
0.8286407592029853
 21
3.878038753069971
 31
0.0
  0
LINE
  5
3858DFB861C84A51
330
3858DFB861C84DB6
100
AcDbEntity
  8
0
 62
     0
100
AcDbLine
 10
0.8418990113502331
 20
3.891297005217219
 30
0.0
 11
0.8418990113502331
 21
3.891297005217219
 31
0.0
  0
LINE
  5
3858DFB861C84A52
330
3858DFB861C84DB6
100
AcDbEntity
  8
0
 62
     0
100
AcDbLine
 10
0.8551572634974808
 20
3.904555257364467
 30
0.0
 11
0.8551572634974808
 21
3.904555257364467
 31
0.0
  0
LINE
  5
3858DFB861C84A53
330
3858DFB861C84DB6
100
AcDbEntity
  8
0
 62
     0
100
AcDbLine
 10
0.8087533809821136
 20
3.831634870554604
 30
0.0
 11
0.8087533809821136
 21
3.831634870554604
 31
0.0
  0
LINE
  5
3858DFB861C84A54
330
3858DFB861C84DB6
100
AcDbEntity
  8
0
 62
     0
100
AcDbLine
 10
0.8220116331293613
 20
3.844893122701852
 30
0.0
 11
0.8220116331293613
 21
3.844893122701852
 31
0.0
  0
LINE
  5
3858DFB861C84A55
330
3858DFB861C84DB6
100
AcDbEntity
  8
0
 62
     0
100
AcDbLine
 10
0.8352698852766092
 20
3.8581513748491
 30
0.0
 11
0.8352698852766092
 21
3.8581513748491
 31
0.0
  0
LINE
  5
3858DFB861C84A56
330
3858DFB861C84DB6
100
AcDbEntity
  8
0
 62
     0
100
AcDbLine
 10
0.8485281374238569
 20
3.871409626996348
 30
0.0
 11
0.8485281374238569
 21
3.871409626996348
 31
0.0
  0
LINE
  5
3858DFB861C84A57
330
3858DFB861C84DB6
100
AcDbEntity
  8
0
 62
     0
100
AcDbLine
 10
0.8617863895711046
 20
3.884667879143595
 30
0.0
 11
0.8617863895711046
 21
3.884667879143595
 31
0.0
  0
LINE
  5
3858DFB861C84A58
330
3858DFB861C84DB6
100
AcDbEntity
  8
0
 62
     0
100
AcDbLine
 10
0.8153825070557378
 20
3.811747492333732
 30
0.0
 11
0.8153825070557378
 21
3.811747492333732
 31
0.0
  0
LINE
  5
3858DFB861C84A59
330
3858DFB861C84DB6
100
AcDbEntity
  8
0
 62
     0
100
AcDbLine
 10
0.8286407592029856
 20
3.82500574448098
 30
0.0
 11
0.8286407592029856
 21
3.82500574448098
 31
0.0
  0
LINE
  5
3858DFB861C84A5A
330
3858DFB861C84DB6
100
AcDbEntity
  8
0
 62
     0
100
AcDbLine
 10
0.8418990113502333
 20
3.838263996628228
 30
0.0
 11
0.8418990113502333
 21
3.838263996628228
 31
0.0
  0
LINE
  5
3858DFB861C84A5B
330
3858DFB861C84DB6
100
AcDbEntity
  8
0
 62
     0
100
AcDbLine
 10
0.855157263497481
 20
3.851522248775476
 30
0.0
 11
0.855157263497481
 21
3.851522248775476
 31
0.0
  0
LINE
  5
3858DFB861C84A5C
330
3858DFB861C84DB6
100
AcDbEntity
  8
0
 62
     0
100
AcDbLine
 10
0.8087533809821138
 20
3.778601861965613
 30
0.0
 11
0.8087533809821138
 21
3.778601861965613
 31
0.0
  0
LINE
  5
3858DFB861C84A5D
330
3858DFB861C84DB6
100
AcDbEntity
  8
0
 62
     0
100
AcDbLine
 10
0.8220116331293617
 20
3.791860114112861
 30
0.0
 11
0.8220116331293617
 21
3.791860114112861
 31
0.0
  0
LINE
  5
3858DFB861C84A5E
330
3858DFB861C84DB6
100
AcDbEntity
  8
0
 62
     0
100
AcDbLine
 10
0.8352698852766094
 20
3.805118366260109
 30
0.0
 11
0.8352698852766094
 21
3.805118366260109
 31
0.0
  0
LINE
  5
3858DFB861C84A5F
330
3858DFB861C84DB6
100
AcDbEntity
  8
0
 62
     0
100
AcDbLine
 10
0.8485281374238571
 20
3.818376618407357
 30
0.0
 11
0.8485281374238571
 21
3.818376618407357
 31
0.0
  0
LINE
  5
3858DFB861C84A60
330
3858DFB861C84DB6
100
AcDbEntity
  8
0
 62
     0
100
AcDbLine
 10
0.8617863895711048
 20
3.831634870554605
 30
0.0
 11
0.8617863895711048
 21
3.831634870554605
 31
0.0
  0
LINE
  5
3858DFB861C84A61
330
3858DFB861C84DB6
100
AcDbEntity
  8
0
 62
     0
100
AcDbLine
 10
0.8153825070557378
 20
3.758714483744741
 30
0.0
 11
0.8153825070557378
 21
3.758714483744741
 31
0.0
  0
LINE
  5
3858DFB861C84A62
330
3858DFB861C84DB6
100
AcDbEntity
  8
0
 62
     0
100
AcDbLine
 10
0.8286407592029854
 20
3.771972735891989
 30
0.0
 11
0.8286407592029854
 21
3.771972735891989
 31
0.0
  0
LINE
  5
3858DFB861C84A63
330
3858DFB861C84DB6
100
AcDbEntity
  8
0
 62
     0
100
AcDbLine
 10
0.8418990113502331
 20
3.785230988039237
 30
0.0
 11
0.8418990113502331
 21
3.785230988039237
 31
0.0
  0
LINE
  5
3858DFB861C84A64
330
3858DFB861C84DB6
100
AcDbEntity
  8
0
 62
     0
100
AcDbLine
 10
0.855157263497481
 20
3.798489240186485
 30
0.0
 11
0.855157263497481
 21
3.798489240186485
 31
0.0
  0
LINE
  5
3858DFB861C84A65
330
3858DFB861C84DB6
100
AcDbEntity
  8
0
 62
     0
100
AcDbLine
 10
0.8087533809821142
 20
3.725568853376622
 30
0.0
 11
0.8087533809821142
 21
3.725568853376622
 31
0.0
  0
LINE
  5
3858DFB861C84A66
330
3858DFB861C84DB6
100
AcDbEntity
  8
0
 62
     0
100
AcDbLine
 10
0.8220116331293619
 20
3.73882710552387
 30
0.0
 11
0.8220116331293619
 21
3.73882710552387
 31
0.0
  0
LINE
  5
3858DFB861C84A67
330
3858DFB861C84DB6
100
AcDbEntity
  8
0
 62
     0
100
AcDbLine
 10
0.8352698852766096
 20
3.752085357671118
 30
0.0
 11
0.8352698852766096
 21
3.752085357671118
 31
0.0
  0
LINE
  5
3858DFB861C84A68
330
3858DFB861C84DB6
100
AcDbEntity
  8
0
 62
     0
100
AcDbLine
 10
0.8485281374238573
 20
3.765343609818366
 30
0.0
 11
0.8485281374238573
 21
3.765343609818366
 31
0.0
  0
LINE
  5
3858DFB861C84A69
330
3858DFB861C84DB6
100
AcDbEntity
  8
0
 62
     0
100
AcDbLine
 10
0.861786389571105
 20
3.778601861965614
 30
0.0
 11
0.861786389571105
 21
3.778601861965614
 31
0.0
  0
LINE
  5
3858DFB861C84A6A
330
3858DFB861C84DB6
100
AcDbEntity
  8
0
 62
     0
100
AcDbLine
 10
0.8153825070557376
 20
3.70568147515575
 30
0.0
 11
0.8153825070557376
 21
3.70568147515575
 31
0.0
  0
LINE
  5
3858DFB861C84A6B
330
3858DFB861C84DB6
100
AcDbEntity
  8
0
 62
     0
100
AcDbLine
 10
0.8286407592029853
 20
3.718939727302998
 30
0.0
 11
0.8286407592029853
 21
3.718939727302998
 31
0.0
  0
LINE
  5
3858DFB861C84A6C
330
3858DFB861C84DB6
100
AcDbEntity
  8
0
 62
     0
100
AcDbLine
 10
0.8418990113502331
 20
3.732197979450246
 30
0.0
 11
0.8418990113502331
 21
3.732197979450246
 31
0.0
  0
LINE
  5
3858DFB861C84A6D
330
3858DFB861C84DB6
100
AcDbEntity
  8
0
 62
     0
100
AcDbLine
 10
0.8551572634974808
 20
3.745456231597494
 30
0.0
 11
0.8551572634974808
 21
3.745456231597494
 31
0.0
  0
LINE
  5
3858DFB861C84A6E
330
3858DFB861C84DB6
100
AcDbEntity
  8
0
 62
     0
100
AcDbLine
 10
0.8220116331293617
 20
3.685794096934878
 30
0.0
 11
0.8220116331293617
 21
3.685794096934878
 31
0.0
  0
LINE
  5
3858DFB861C84A6F
330
3858DFB861C84DB6
100
AcDbEntity
  8
0
 62
     0
100
AcDbLine
 10
0.8352698852766094
 20
3.699052349082126
 30
0.0
 11
0.8352698852766094
 21
3.699052349082126
 31
0.0
  0
LINE
  5
3858DFB861C84A70
330
3858DFB861C84DB6
100
AcDbEntity
  8
0
 62
     0
100
AcDbLine
 10
0.8485281374238573
 20
3.712310601229374
 30
0.0
 11
0.8485281374238573
 21
3.712310601229374
 31
0.0
  0
LINE
  5
3858DFB861C84A71
330
3858DFB861C84DB6
100
AcDbEntity
  8
0
 62
     0
100
AcDbLine
 10
0.861786389571105
 20
3.725568853376622
 30
0.0
 11
0.861786389571105
 21
3.725568853376622
 31
0.0
  0
LINE
  5
3858DFB861C84A72
330
3858DFB861C84DB6
100
AcDbEntity
  8
0
 62
     0
100
AcDbLine
 10
0.8551572634974814
 20
3.692423223008502
 30
0.0
 11
0.8551572634974814
 21
3.692423223008502
 31
0.0
  0
ENDBLK
  5
3858DFB861C84A73
330
3858DFB861C84DB6
100
AcDbEntity
  8
0
100
AcDbBlockEnd
  0
ENDSEC
  0
SECTION
  2
ENTITIES
  0
TEXT
  5
654
330
3858DFB861C84D95
100
AcDbEntity
  8
ADCADD_FRZ
100
AcDbText
 10
0.5
 20
8.5
 30
0.0
 40
0.125
  1
TOOLBOX_DEFAULT_VALUES
100
AcDbText
1001
TB_S_MPD
1070
   100
1000
TOOLBOX
1070
   101
1000
TOOLBOX 12.0 TOOLBOX 12.0
1070
   102
1000
0
1070
   103
1000
ANSI-Fraction
1070
   199
1000
Conv
  0
TEXT
  5
655
330
3858DFB861C84D95
100
AcDbEntity
  8
ADCADD_FRZ
100
AcDbText
 10
0.5
 20
8.25
 30
0.0
 40
0.125
  1
CBORE_DEFAULT_VALUES
100
AcDbText
1001
TB_S_MPD
1070
   100
1000
CBORE
1070
   101
1000
TOOLBOX 12.0 CBORE 1.0
1070
   102
1000
Near side
1070
   103
1000
ANSI-Fraction
1070
   104
1000
shcs
1070
   105
1000
<Current>
1070
   106
1000
HIDDEN
1070
   107
1000
CENTER
1070
   300
1040
0.125
1070
   108
1000
1
1070
   109
1000
1
1070
   301
1040
0.03
1070
   110
1000
1
1070
   302
1040
0.0
1070
   303
1040
0.0
1070
   113
1000
1
1070
   117
1000
1
1070
   199
1000
Conv
  0
TEXT
  5
658
330
3858DFB861C84D95
100
AcDbEntity
  8
ADCADD_FRZ
100
AcDbText
 10
0.5
 20
7.25
 30
0.0
 40
0.125
  1
RECT_DEFAULT_VALUES
100
AcDbText
1001
TB_S_MPD
1070
   100
1000
RECT
1070
   101
1000
TOOLBOX 12.0 RECT 12.0
1070
   102
1000
0
1070
   103
1000
0
1070
   301
1040
0.0
1070
   105
1000
0
1070
   302
1040
0.0
1070
   104
1000
0
1070
   303
1040
0.0
1070
   304
1040
0.0
1070
   305
1040
0.0
1070
   306
1040
0.0
1070
   307
1040
0.0
  0
TEXT
  5
65B
330
3858DFB861C84D95
100
AcDbEntity
  8
ADCADD_FRZ
100
AcDbText
 10
0.5
 20
6.5
 30
0.0
 40
0.125
  1
CALC_DEFAULT_VALUES
100
AcDbText
1001
TB_S_MPD
1070
   100
1000
CALC
1070
   101
1000
TOOLBOX 12.0 CALC 12.0
1070
   102
1000
0
  0
TEXT
  5
65C
330
3858DFB861C84D95
100
AcDbEntity
  8
ADCADD_FRZ
100
AcDbText
 10
0.5
 20
6.25
 30
0.0
 40
0.125
  1
CSINK_DEFAULT_VALUES
100
AcDbText
1001
TB_S_MPD
1070
   100
1000
CSINK
1070
   101
1000
TOOLBOX 12.0 CSINK 1.0
1070
   102
1000
Near side
1070
   103
1000
ANSI-Fraction
1070
   104
1000
fhcs
1070
   105
1000
<Current>
1070
   106
1000
HIDDEN
1070
   107
1000
CENTER
1070
   300
1040
0.125
1070
   108
1000
1
1070
   109
1000
1
1070
   301
1040
0.03
1070
   110
1000
1
1070
   302
1040
0.0
1070
   303
1040
0.0
1070
   113
1000
1
1070
   117
1000
1
  0
TEXT
  5
65D
330
3858DFB861C84D95
100
AcDbEntity
  8
ADCADD_FRZ
100
AcDbText
 10
0.5
 20
6.0
 30
0.0
 40
0.125
  1
HOLE_DEFAULT_VALUES
100
AcDbText
1001
TB_S_MPD
1070
   100
1000
HOLE
1070
   101
1000
TOOLBOX 12.0 HOLE 1.0
1070
   102
1000
Near side
1070
   103
1000
ANSI-Fraction
1070
   104
1000
hole
1070
   110
1000
1
1070
   116
1000
1
1070
   117
1000
1
1070
   310
1040
118.0
1070
   105
1000
<Current>
1070
   106
1000
HIDDEN
1070
   107
1000
CENTER
1070
   300
1040
0.125
1070
   113
1000
1
1070
   108
1000
1
1070
   109
1000
1
1070
   302
1040
0.0
1070
   303
1040
0.0
1070
   304
1040
0.0
1070
   305
1040
0.0
  0
TEXT
  5
65E
330
3858DFB861C84D95
100
AcDbEntity
  8
ADCADD_FRZ
100
AcDbText
 10
0.5
 20
5.75
 30
0.0
 40
0.125
  1
PTAP_DEFAULT_VALUES
100
AcDbText
1001
TB_S_MPD
1070
   100
1000
PTAP
1070
   101
1000
TOOLBOX 12.0 PTAP 1.0
1070
   102
1000
Near side
1070
   103
1000
ANSI-Fraction
1070
   104
1000
ptap
1070
   116
1000
1
1070
   117
1000
1
1070
   310
1040
118.0
1070
   105
1000
<Current>
1070
   106
1000
HIDDEN
1070
   107
1000
CENTER
1070
   300
1040
0.125
1070
   113
1000
1
1070
   108
1000
1
1070
   109
1000
1
1070
   302
1040
0.0
1070
   303
1040
0.0
1070
   304
1040
0.0
1070
   305
1040
0.0
  0
TEXT
  5
65F
330
3858DFB861C84D95
100
AcDbEntity
  8
ADCADD_FRZ
100
AcDbText
 10
0.5
 20
5.5
 30
0.0
 40
0.125
  1
TAP_DEFAULT_VALUES
100
AcDbText
1001
TB_S_MPD
1070
   100
1000
TAP
1070
   101
1000
TOOLBOX 12.0 TAP 1.0
1070
   102
1000
Near side
1070
   103
1000
ANSI-Fraction
1070
   104
1000
tap_
1070
   110
1000
Plug
1070
   116
1000
1
1070
   117
1000
1
1070
   310
1040
118.0
1070
   105
1000
<Current>
1070
   106
1000
HIDDEN
1070
   107
1000
CENTER
1070
   300
1040
0.125
1070
   113
1000
1
1070
   108
1000
1
1070
   109
1000
1
1070
   302
1040
0.0
1070
   303
1040
0.0
1070
   304
1040
0.0
1070
   305
1040
0.0
  0
TEXT
  5
660
330
3858DFB861C84D95
100
AcDbEntity
  8
ADCADD_FRZ
100
AcDbText
 10
0.5
 20
5.25
 30
0.0
 40
0.125
  1
HCOIL_DEFAULT_VALUES
100
AcDbText
1001
TB_S_MPD
1070
   100
1000
HCOIL
1070
   101
1000
TOOLBOX 12.0 HCOIL 1.0
1070
   102
1000
Near side
1070
   103
1000
ANSI-Fraction
1070
   104
1000
hc10
1070
   116
1000
1
1070
   119
1000
1
1070
   117
1000
1
1070
   118
1000
1
1070
   310
1040
118.0
1070
   105
1000
<Current>
1070
   106
1000
HIDDEN
1070
   107
1000
CENTER
1070
   300
1040
0.125
1070
   113
1000
1
1070
   108
1000
1
1070
   109
1000
1
1070
   302
1040
0.0
1070
   303
1040
0.0
1070
   304
1040
0.0
1070
   305
1040
120.0
  0
TEXT
  5
661
330
3858DFB861C84D95
100
AcDbEntity
  8
ADCADD_FRZ
100
AcDbText
 10
0.4695575471589253
 20
5.000842800147283
 30
0.0
 40
0.125
  1
BMAT_DEFAULT_VALUES
100
AcDbText
1001
TB_S_MPD
1070
   100
1000
BMAT
1070
   101
1000
TOOLBOX 12.0 BMAT 12.0
1070
   104
1000
Plain
1070
   300
1040
0.6875
1070
   105
1000
1
1070
   301
1040
0.0
1070
   106
1000
DEFAULT
1070
   107
1000
TOOLBOX
1070
   302
1040
0.25
1070
   303
1040
0.0625
1070
   108
1000
1
1070
   109
1000
1
1070
   110
1000
1
1070
   111
1000
1
1070
   199
1000
Conv
1070
   112
1000
0
  0
TEXT
  5
662
330
3858DFB861C84D95
100
AcDbEntity
  8
ADCADD_FRZ
100
AcDbText
 10
0.4710021509630132
 20
4.758782586510267
 30
0.0
 40
0.125
  1
TOLERANCE_DEFAULT_VALUES
100
AcDbText
1001
TB_S_MPD
1070
   100
1000
TOLERANCE
1070
   101
1000
TOOLBOX 12.0 TOLERANCE 12.0
1070
   102
1000
(0.005 0.0 0.01 0.0 0.01 0.0 0.01 0.005)
1070
   103
1000
(0.005 0.0 0.01 0.0 0.01 0.005)
  0
TEXT
  5
663
330
3858DFB861C84D95
100
AcDbEntity
  8
ADCADD_FRZ
100
AcDbText
 10
4.72175633421155
 20
7.75
 30
0.0
 40
0.125
  1
HARDWARE1_DEFAULT_VALUES
100
AcDbText
1001
TB_S_MPD
1070
   100
1000
HARDWARE1
1070
   101
1000
TOOLBOX 12.0 HARDWARE1 1.0
1070
   102
1000
Near side
1070
   103
1000
ANSI-Fraction
1070
   104
1000
shcs
1070
   105
1000
<Current>
1070
   106
1000
HIDDEN
1070
   107
1000
CENTER
1070
   300
1040
0.125
1070
   108
1000
1
1070
   109
1000
1
1070
   113
1000
1
1070
   114
1000
1
1070
   117
1000
1
1070
   118
1000
1
1070
   119
1000
Hex
1070
   199
1000
Conv
  0
TEXT
  5
664
330
3858DFB861C84D95
100
AcDbEntity
  8
ADCADD_FRZ
100
AcDbText
 10
4.75
 20
8.5
 30
0.0
 40
0.125
  1
USERLIB_DEFAULT_VALUES
100
AcDbText
1001
TB_S_MPD
1070
   100
1000
USERLIB
1070
   101
1000
TOOLBOX 12.0 USERLIB 12.0
1070
   110
1000
1
1070
   111
1000
1
1070
   112
1000
1
1070
   113
1000
0
1070
   118
1000
1
1070
   114
1000
1
  0
TEXT
  5
665
330
3858DFB861C84D95
100
AcDbEntity
  8
ADCADD_FRZ
100
AcDbText
 10
4.72175633421155
 20
8.239130433871544
 30
0.0
 40
0.125
  1
PTDIM_DEFAULT_VALUES
100
AcDbText
1001
TB_S_MPD
1070
   100
1000
PTDIM
1070
   101
1000
TOOLBOX 12.0 PTDIM 12.0
1070
   102
1000
(
1070
   103
1000
0
1070
   105
1000
TOOLBOX
1070
   301
1040
0.125
1070
   108
1000
4
1070
   109
1000
0
1070
   110
1000
1
1070
   199
1000
Conv
  0
TEXT
  5
666
330
3858DFB861C84D95
100
AcDbEntity
  8
ADCADD_FRZ
100
AcDbText
 10
4.72175633421155
 20
8.0
 30
0.0
 40
0.125
  1
SLINE_DEFAULT_VALUES
100
AcDbText
1001
TB_S_MPD
1070
   100
1000
SLINE
1070
   101
1000
TOOLBOX 12.0 SLINE 12.0
1070
   102
1000
TOOLBOX
1070
   301
1040
0.125
1070
   302
1040
0.1875
1070
   303
1040
0.5
1070
   103
1000
PHANTOM
1070
   104
1000
2
1070
   304
1040
0.0
1070
   199
1000
Conv
  0
TEXT
  5
667
330
3858DFB861C84D95
100
AcDbEntity
  8
ADCADD_FRZ
100
AcDbText
 10
4.72175633421155
 20
7.5
 30
0.0
 40
0.125
  1
HARDWARE2_DEFAULT_VALUES
100
AcDbText
1001
TB_S_MPD
1070
   100
1000
HARDWARE2
1070
   101
1000
TOOLBOX 12.0 HARDWARE2 1.0
1070
   102
1000
Near side
1070
   103
1000
ANSI-Fraction
1070
   104
1000
hnr_
1070
   105
1000
<Current>
1070
   106
1000
HIDDEN
1070
   107
1000
CENTER
1070
   300
1040
0.125
1070
   108
1000
1
1070
   109
1000
1
1070
   113
1000
1
1070
   117
1000
1
1070
   118
1000
1
1070
   119
1000
Bearing
  0
TEXT
  5
66A
330
3858DFB861C84D95
100
AcDbEntity
  8
ADCADD_FRZ
100
AcDbText
 10
4.72175633421155
 20
7.25
 30
0.0
 40
0.125
  1
HARDWARE3_DEFAULT_VALUES
100
AcDbText
1001
TB_S_MPD
1070
   100
1000
HARDWARE3
1070
   101
1000
TOOLBOX 12.0 HARDWARE3 1.0
1070
   102
1000
Near side
1070
   103
1000
ANSI-Fraction
1070
   104
1000
dpm_
1070
   105
1000
<Current>
1070
   106
1000
HIDDEN
1070
   107
1000
CENTER
1070
   300
1040
0.125
1070
   108
1000
1
1070
   109
1000
1
1070
   113
1000
1
1070
   117
1000
1
1070
   118
1000
1
1070
   119
1000
No options
  0
TEXT
  5
66B
330
3858DFB861C84D95
100
AcDbEntity
  8
ADCADD_FRZ
100
AcDbText
 10
4.72175633421155
 20
7.0
 30
0.0
 40
0.125
  1
HARDWARE4_DEFAULT_VALUES
100
AcDbText
1001
TB_S_MPD
1070
   100
1000
HARDWARE4
1070
   101
1000
TOOLBOX 12.0 HARDWARE4 1.0
1070
   102
1000
Near side
1070
   103
1000
ANSI-Fraction
1070
   104
1000
ss2_
1070
   105
1000
<Current>
1070
   106
1000
HIDDEN
1070
   107
1000
CENTER
1070
   300
1040
0.125
1070
   108
1000
1
1070
   109
1000
1
1070
   113
1000
1
1070
   114
1000
1
1070
   117
1000
1
1070
   118
1000
1
1070
   119
1000
Hex
  0
TEXT
  5
66C
330
3858DFB861C84D95
100
AcDbEntity
  8
ADCADD_FRZ
100
AcDbText
 10
4.72175633421155
 20
6.75
 30
0.0
 40
0.125
  1
HARDWARE5_DEFAULT_VALUES
100
AcDbText
1001
TB_S_MPD
1070
   100
1000
HARDWARE5
1070
   101
1000
TOOLBOX 12.0 HARDWARE5 1.0
1070
   102
1000
Near side
1070
   103
1000
ANSI-Fraction
1070
   104
1000
fw1_
1070
   105
1000
<Current>
1070
   106
1000
HIDDEN
1070
   107
1000
CENTER
1070
   300
1040
0.125
1070
   108
1000
1
1070
   109
1000
1
1070
   113
1000
1
1070
   117
1000
1
1070
   118
1000
1
1070
   119
1000
No options
  0
TEXT
  5
66D
330
3858DFB861C84D95
100
AcDbEntity
  8
ADCADD_FRZ
100
AcDbText
 10
4.72175633421155
 20
6.5
 30
0.0
 40
0.125
  1
GEAR_DEFAULT_VALUES
100
AcDbText
1001
TB_S_MPD
1070
   100
1000
GEAR
1070
   101
1000
TOOLBOX 12.0 GEAR 12.0
1070
   103
1000
0
1070
   104
1000
0
1070
   105
1000
100
1070
   106
1000
6
1070
   300
1040
8.0
1070
   301
1040
14.5
1070
   107
1000
20000
  0
TEXT
  5
66E
330
3858DFB861C84D95
100
AcDbEntity
  8
ADCADD_FRZ
100
AcDbText
 10
4.72175633421155
 20
6.0
 30
0.0
 40
0.125
  1
CIRCAM_DEFAULT_VALUES
100
AcDbText
1001
TB_S_MPD
1070
   300
1040
1.0
1070
   100
1000
CIRCAM
1070
   101
1000
TOOLBOX 12.0 CIRCAM 12.0
1070
   103
1000
1
1070
   104
1000
1
1070
   105
1000
CT
1070
   106
1000
0
1070
   301
1040
1.0
1070
   302
1040
0.0005
  0
TEXT
  5
66F
330
3858DFB861C84D95
100
AcDbEntity
  8
ADCADD_FRZ
100
AcDbText
 10
4.72175633421155
 20
5.75
 30
0.0
 40
0.125
  1
LINCAM_DEFAULT_VALUES
100
AcDbText
1001
TB_S_MPD
1070
   300
1040
1.0
1070
   100
1000
LINCAM
1070
   101
1000
TOOLBOX 12.0 LINCAM 12.0
1070
   103
1000
1
1070
   104
1000
1
1070
   105
1000
LT
  0
TEXT
  5
671
330
3858DFB861C84D95
100
AcDbEntity
  8
ADCADD_FRZ
100
AcDbText
 10
4.72175633421155
 20
6.25
 30
0.0
 40
0.125
  1
CAM_DEFAULT_VALUES
100
AcDbText
1001
TB_S_MPD
1070
   100
1000
CAM
1070
   101
1000
TOOLBOX 12.0 CAM 12.0
1070
   102
1000
0
  0
TEXT
  5
672
330
3858DFB861C84D95
100
AcDbEntity
  8
ADCADD_FRZ
100
AcDbText
 10
4.72175633421155
 20
5.5
 30
0.0
 40
0.125
  1
THREAD_DEFAULT_VALUES
100
AcDbText
1001
TB_S_MPD
1070
   100
1000
THREAD
1070
   101
1000
TOOLBOX 12.0 THREAD 12.0
1070
   102
1000
0
1070
   103
1000
ANSI-Fraction
1070
   114
1000
1
  0
TEXT
  5
674
330
3858DFB861C84D95
100
AcDbEntity
  8
ADCADD_FRZ
100
AcDbText
 10
0.5
 20
6.75
 30
0.0
 40
0.125
  1
VERTEX_DEFAULT_VALUES
100
AcDbText
1001
TB_S_MPD
1070
   100
1000
VERTEX
1070
   101
1000
TOOLBOX 12.0 VERTEX 12.0
1070
   109
1000
1
1070
   110
1000
4
1070
   111
1000
0
1070
   112
1000
1
1070
   113
1000
0
1070
   114
1000
1
1070
   115
1000
0
1070
   116
1000
1
1070
   199
1000
Conv
  0
TEXT
  5
675
330
3858DFB861C84D95
100
AcDbEntity
  8
ADCADD_FRZ
100
AcDbText
 10
4.72175633421155
 20
5.250842800147283
 30
0.0
 40
0.125
  1
SFINISH_DEFAULT_VALUES
100
AcDbText
1001
TB_S_MPD
1070
   100
1000
SFINISH
1070
   101
1000
TOOLBOX 12.0 SFINISH 12.0
1070
   102
1000
0
1070
   301
1040
0.0
1070
   302
1040
0.0
1070
   303
1040
0.0
  0
TEXT
  5
676
330
3858DFB861C84D95
100
AcDbEntity
  8
ADCADD_FRZ
100
AcDbText
 10
4.72175633421155
 20
5.008782586510267
 30
0.0
 40
0.125
  1
DDIM_DEFAULT_VALUES
100
AcDbText
1001
TB_S_MPD
1070
   100
1000
DDIM
1070
   101
1000
TOOLBOX 12.0 DDIM 12.0
1070
   104
1000
0
1070
   105
1000
0
1070
   106
1000
1
1070
   107
1000
0
1070
   108
1000
0
1070
   300
1040
2.0
1070
   109
1000
0
1070
   110
1000
1
1070
   301
1040
1.0
1070
   302
1040
0.0625
1070
   303
1040
0.0625
1070
   304
1040
0.25
1070
   305
1040
0.25
1070
   111
1000
1
1070
   112
1000
0
1070
   113
1000
0
1070
   114
1000
0
1070
   115
1000
TOOLBOX
1070
   306
1040
0.125
1070
   307
1040
0.125
1070
   116
1000
0
1070
   120
1000

1070
   121
1000

1070
   122
1000

1070
   123
1000
0
1070
   199
1000
Conv
  0
TEXT
  5
677
330
3858DFB861C84D95
100
AcDbEntity
  8
ADCADD_FRZ
100
AcDbText
 10
0.5
 20
7.0
 30
0.0
 40
0.125
  1
SLOT_DEFAULT_VALUES
100
AcDbText
1001
TB_S_MPD
1070
   100
1000
SLOT
1070
   101
1000
TOOLBOX 12.0 SLOT 12.0
1070
   102
1000
Near side
1070
   120
1000
2
1070
   104
1000
0
1070
   116
1000
1
1070
   310
1040
0.0
1070
   306
1040
0.0
1070
   311
1040
0.0
1070
   308
1040
0.0
1070
   117
1000
1
1070
   105
1000
<Current>
1070
   106
1000
HIDDEN
1070
   107
1000
CENTER
1070
   300
1040
0.125
1070
   113
1000
1
1070
   108
1000
1
1070
   109
1000
1
  0
TEXT
  5
679
330
3858DFB861C84D95
100
AcDbEntity
  8
ADCADD_FRZ
100
AcDbText
 10
0.4405596981219384
 20
4.50962538665755
 30
0.0
 40
0.125
  1
KWAY_DEFAULT_VALUES
100
AcDbText
1001
TB_S_MPD
1070
   100
1000
KWAY
1070
   101
1000
TOOLBOX 12.0 KWAY 1.0
1070
   102
1000
Near side
1070
   103
1000
ANSI-Fraction
1070
   104
1000
kws_
1070
   117
1000
1
1070
   110
1000
0
1070
   105
1000
<Current>
1070
   106
1000
HIDDEN
1070
   107
1000
CENTER
1070
   300
1040
0.125
1070
   113
1000
1
1070
   108
1000
1
1070
   109
1000
1
1070
   302
1040
0.0
1070
   303
1040
0.0
1070
   304
1040
0.0
1070
   305
1040
0.0
  0
TEXT
  5
67A
330
3858DFB861C84D95
100
AcDbEntity
  8
ADCADD_FRZ
100
AcDbText
 10
4.72175633421155
 20
4.75962538665755
 30
0.0
 40
0.125
  1
KSEAT_DEFAULT_VALUES
100
AcDbText
1001
TB_S_MPD
1070
   100
1000
KSEAT
1070
   101
1000
TOOLBOX 12.0 KSEAT 1.0
1070
   102
1000
Near end1
1070
   103
1000
ANSI-Fraction
1070
   104
1000
kws_
1070
   117
1000
1
1070
   105
1000
<Current>
1070
   106
1000
HIDDEN
1070
   107
1000
CENTER
1070
   300
1040
0.125
1070
   113
1000
1
1070
   108
1000
1
1070
   120
1000
2
1070
   121
1000
0
  0
TEXT
  5
67B
330
3858DFB861C84D95
100
AcDbEntity
  8
ADCADD_FRZ
100
AcDbText
 10
0.5
 20
7.75
 30
0.0
 40
0.125
  1
HDIM_DEFAULT_VALUES
100
AcDbText
1001
TB_S_MPD
1070
   100
1000
HDIM
1070
   101
1000
TOOLBOX 12.0 HDIM 12.0
1070
   102
1000
0
1070
   105
1000
TOOLBOX
1070
   106
1000
4
1070
   107
1000
0
1070
   108
1000
1
1070
   109
1000
1
1070
   110
1000
0
1070
   111
1000
0
1070
   199
1000
Conv
  0
TEXT
  5
67C
330
3858DFB861C84D95
100
AcDbEntity
  8
ADCADD_FRZ
100
AcDbText
 10
0.5
 20
7.5
 30
0.0
 40
0.125
  1
HCHART_DEFAULT_VALUES
100
AcDbText
1001
TB_S_MPD
1070
   100
1000
HCHART
1070
   101
1000
TOOLBOX 12.0 HCHART 12.0
1070
   102
1000
0
1070
   105
1000
0
1070
   300
1040
0.125
1070
   301
1040
0.0625
1070
   302
1040
45.0
1070
   303
1040
1.0
1070
   106
1000
3
1070
   107
1000
0
1070
   108
1000
1
1070
   109
1000
1
1070
   199
1000
Conv
  0
TEXT
  5
67D
330
3858DFB861C84D95
100
AcDbEntity
  8
ADCADD_FRZ
100
AcDbText
 10
4.72175633421155
 20
4.50962538665755
 30
0.0
 40
0.125
  1
ORINGGRV_DEFAULT_VALUES
100
AcDbText
1001
TB_S_MPD
1070
   100
1000
ORINGGRV
1070
   101
1000
TOOLBOX 12.0 ORINGGRV 12.0
1070
   301
1040
0.0
1070
   302
1040
0.0
1070
   303
1040
0.0
1070
   304
1040
0.0
1070
   305
1040
0.0
1070
   306
1040
0.0
1070
   307
1040
0.0
1070
   120
1000
1
1070
   102
1000
0
  0
TEXT
  5
67E
330
3858DFB861C84D95
100
AcDbEntity
  8
ADCADD_FRZ
100
AcDbText
 10
4.72175633421155
 20
4.25962538665755
 30
0.0
 40
0.125
  1
RRINGGRV_DEFAULT_VALUES
100
AcDbText
1001
TB_S_MPD
1070
   100
1000
RRINGGRV
1070
   101
1000
TOOLBOX 12.0 RRINGGRV 12.0
1070
   301
1040
0.0
1070
   302
1040
0.0
1070
   303
1040
0.0
1070
   304
1040
0.0
1070
   120
1000
1
1070
   102
1000
0
  0
TEXT
  5
67F
330
3858DFB861C84D95
100
AcDbEntity
  8
ADCADD_FRZ
100
AcDbText
 10
0.5
 20
8.0
 30
0.0
 40
0.125
  1
LAYMGR_DEFAULT_VALUES
100
AcDbText
1001
TB_S_MPD
1070
   100
1000
LAYMGR
1070
   101
1000
TOOLBOX 12.0 LAYMGR 12.0
1070
   150
1000
("BOM" "CONTINUOUS" "2" "1")
1070
   151
1000
("CENTER" "CENTER" "3" "1")
1070
   152
1000
("CHARTS" "CONTINUOUS" "3" "1")
1070
   153
1000
("CONSTRUCT" "CONTINUOUS" "2" "1")
1070
   154
1000
("DIMS" "CONTINUOUS" "3" "1")
1070
   155
1000
("HIDDEN" "HIDDEN" "1" "1")
1070
   156
1000
("HCHARTS" "CONTINUOUS" "3" "1")
1070
   157
1000
("DIMS" "CONTINUOUS" "3" "1")
1070
   158
1000
("OBJECT" "CONTINUOUS" "7" "1")
1070
   159
1000
("SECTION" "PHANTOM" "2" "1")
1070
   199
1000
Conv
  0
TEXT
  5
A28E6
330
3858DFB861C84D95
100
AcDbEntity
  8
DIM
100
AcDbText
 10
42.53206938113438
 20
18.85548379023309
 30
0.0
 40
0.2
  1

 50
270.0
 51
10.0
  7
SIMPLEX
100
AcDbText
  0
LWPOLYLINE
  5
A298A
330
3858DFB861C84D95
100
AcDbEntity
  8
3
100
AcDbPolyline
 90
        4
 70
     0
 43
0.0
 10
4.863589912309127
 20
8.089201271469219
 10
7.863589912309127
 20
8.089201271469219
 10
7.863589912309127
 20
7.464201271469219
 10
4.863589912309127
 20
7.464201271469219
  0
LWPOLYLINE
  5
A2990
330
3858DFB861C84D95
100
AcDbEntity
  8
3
100
AcDbPolyline
 90
        4
 70
     0
 43
0.0
 10
4.863589912309112
 20
8.714201271469233
 10
6.988589912309141
 20
8.714201271469233
 10
6.988589912309141
 20
8.089201271469219
 10
4.863589912309112
 20
8.089201271469219
  0
LWPOLYLINE
  5
A2998
330
3858DFB861C84D95
100
AcDbEntity
  8
3
100
AcDbPolyline
 90
        4
 70
     0
 43
0.0
 10
4.863589912309127
 20
3.464201271469218
 10
7.863589912309127
 20
3.464201271469232
 10
7.863589912309127
 20
3.964201271469232
 10
4.863589912309127
 20
3.964201271469232
  0
LINE
  5
A299E
330
3858DFB861C84D95
100
AcDbEntity
  8
3
100
AcDbLine
 10
4.863589912309127
 20
9.48087762068526
 30
0.0
 11
4.863589912309127
 21
2.887303323158403
 31
0.0
  0
INSERT
  5
A299F
330
3858DFB861C84D95
100
AcDbEntity
  8
ZPAPER
100
AcDbBlockReference
  2
2X4
 10
6.363589912309127
 20
5.714201271469233
 30
0.0
  0
INSERT
  5
A29A0
330
3858DFB861C84D95
100
AcDbEntity
  8
ZPAPER
100
AcDbBlockReference
  2
2X4
 10
7.863589912309127
 20
5.714201271469219
 30
0.0
  0
LWPOLYLINE
  5
A29A1
330
3858DFB861C84D95
100
AcDbEntity
  8
3
100
AcDbPolyline
 90
        8
 70
     1
 43
0.0
 10
9.09858991230914
 20
7.589201271469219
 10
8.628589912309141
 20
7.589201271469219
 42
-0.4142135623730951
 10
8.613589912309141
 20
7.60420127146922
 10
8.613589912309141
 20
8.074201271469219
 42
-0.4142135623730951
 10
8.628589912309141
 20
8.089201271469219
 10
9.09858991230914
 20
8.089201271469219
 42
-0.4142135623730951
 10
9.113589912309141
 20
8.074201271469219
 10
9.113589912309141
 20
7.60420127146922
 42
-0.4142135623730951
  0
LWPOLYLINE
  5
A29AB
330
3858DFB861C84D95
100
AcDbEntity
  8
3
100
AcDbPolyline
 90
        8
 70
     1
 43
0.0
 10
9.341089912309133
 20
4.339201271469218
 10
8.636089912309135
 20
4.339201271469218
 42
0.4142135623730951
 10
8.613589912309127
 20
4.316701271469224
 10
8.613589912309127
 20
3.486701271469212
 42
0.4142135623730951
 10
8.636089912309135
 20
3.464201271469218
 10
9.341089912309133
 20
3.464201271469218
 42
0.4142135623730951
 10
9.363589912309127
 20
3.486701271469212
 10
9.363589912309127
 20
4.316701271469224
 42
0.4142135623730951
  0
LWPOLYLINE
  5
A29B5
330
3858DFB861C84D95
100
AcDbEntity
  8
3
100
AcDbPolyline
 90
        8
 70
     1
 43
0.0
 10
7.863589912309141
 20
7.989201271469225
 10
7.863589912309141
 20
3.564201271469227
 42
0.4142135623730951
 10
7.963589912309135
 20
3.464201271469218
 10
8.513589912309132
 20
3.464201271469218
 42
0.4142135623730951
 10
8.613589912309141
 20
3.564201271469227
 10
8.613589912309141
 20
7.989201271469225
 42
0.4142135623730951
 10
8.513589912309132
 20
8.089201271469219
 10
7.963589912309135
 20
8.089201271469219
 42
0.4142135623730948
  0
LWPOLYLINE
  5
A29BF
330
3858DFB861C84D95
100
AcDbEntity
  8
3
100
AcDbPolyline
 90
       19
 70
     1
 43
0.0
 10
8.613589912309141
 20
3.439201271469227
 10
7.301089912309141
 20
3.439201271469227
 10
7.301089912309141
 20
3.464201271469232
 10
6.832089912309132
 20
3.464201271469232
 42
0.4142135623730951
 10
6.801089912309141
 20
3.433201271469227
 10
6.801089912309141
 20
3.057701271469224
 42
0.4142135623730951
 10
6.832089912309132
 20
3.026701271469232
 10
7.288249291875576
 20
3.026701271469232
 42
0.1989123673796592
 10
7.310169602092347
 20
3.035780961252439
 10
7.338805759817251
 20
3.064417118977343
 42
-0.2196211598054495
 10
7.363183572425629
 20
3.073399246884361
 42
0.1042901008397237
 10
8.428391622495855
 20
3.211005866457523
 42
-0.1264117829966397
 10
8.644589912309132
 20
3.214201271469232
 10
8.644589912309132
 20
3.245451271469232
 10
9.082589912309135
 20
3.245451271469232
 42
0.4142135623730951
 10
9.113589912309127
 20
3.276451271469224
 10
9.113589912309141
 20
3.433201271469227
 42
0.4142135623730951
 10
9.082589912309135
 20
3.464201271469232
 10
8.613589912309141
 20
3.464201271469232
  0
INSERT
  5
A29D4
330
3858DFB861C84D95
100
AcDbEntity
  8
3
100
AcDbBlockReference
  2
908
 10
6.988589912309141
 20
8.089201271469219
 30
0.0
 41
-1.0
  0
LINE
  5
A2A2B
330
3858DFB861C84D95
100
AcDbEntity
  8
3
  6
Continuous
100
AcDbLine
 10
3.949051983894165
 20
13.69664270341858
 30
0.0
 11
10.47780657584852
 21
13.69664270341858
 31
0.0
  0
LWPOLYLINE
  5
A2A2C
330
3858DFB861C84D95
100
AcDbEntity
  8
3
100
AcDbPolyline
 90
        4
 70
     0
 43
0.0
 10
4.895799979355729
 20
34.07037282037264
 10
4.691241493468425
 20
31.52953364992864
 10
5.316241493468425
 20
31.52953364992864
 10
5.316241493468425
 20
34.07037282037264
  0
LWPOLYLINE
  5
A2A32
330
3858DFB861C84D95
100
AcDbEntity
  8
3
100
AcDbPolyline
 90
        4
 70
     0
 43
0.019
 10
5.316241493468524
 20
32.34133943961167
 10
5.316241493468524
 20
31.51451693780594
 10
4.07553164251729
 20
31.45313712658659
 10
4.021347146058474
 20
31.15345922475102
  0
INSERT
  5
A2A38
330
3858DFB861C84D95
100
AcDbEntity
  8
3
100
AcDbBlockReference
  2
908
 10
5.316241493468425
 20
31.44537282037263
 30
0.0
 50
90.0
  0
LWPOLYLINE
  5
A2A39
330
3858DFB861C84D95
100
AcDbEntity
  8
3
100
AcDbPolyline
 90
        8
 70
     1
 43
0.0
 10
5.816241493468425
 20
29.33537282037263
 10
5.816241493468425
 20
29.80537282037262
 42
0.4142135623730951
 10
5.801241493468424
 20
29.82037282037262
 10
5.331241493468425
 20
29.82037282037262
 42
0.4142135623730951
 10
5.316241493468425
 20
29.80537282037262
 10
5.316241493468425
 20
29.33537282037263
 42
0.4142135623730951
 10
5.331241493468425
 20
29.32037282037263
 10
5.801241493468424
 20
29.32037282037263
 42
0.4142135623730951
  0
LWPOLYLINE
  5
A2A43
330
3858DFB861C84D95
100
AcDbEntity
  8
3
100
AcDbPolyline
 90
        8
 70
     1
 43
0.0
 10
5.416241493468433
 20
30.57037282037264
 10
9.84124149346843
 20
30.57037282037264
 42
-0.4142135623730951
 10
9.941241493468439
 20
30.47037282037263
 10
9.941241493468439
 20
29.92037282037263
 42
-0.4142135623730951
 10
9.84124149346843
 20
29.82037282037264
 10
5.416241493468433
 20
29.82037282037264
 42
-0.4142135623730951
 10
5.316241493468425
 20
29.92037282037263
 10
5.316241493468425
 20
30.47037282037263
 42
-0.4142135623730948
  0
LWPOLYLINE
  5
A2A5B
330
3858DFB861C84D95
100
AcDbEntity
  8
3
100
AcDbPolyline
 90
        6
 70
     1
 43
0.0
 10
10.69086979887631
 20
17.55931695821563
 10
9.065869798876306
 20
17.55931695821563
 10
9.065869798876306
 20
18.30931695821563
 10
10.69086979887631
 20
18.30931695821563
 42
-0.414213562373095
 10
10.9408697988763
 20
18.05931695821563
 10
10.9408697988763
 20
17.80931695821563
 42
-0.4142135623730951
  0
LINE
  5
A2A6D
330
3858DFB861C84D95
100
AcDbEntity
  8
3
  6
Continuous
100
AcDbLine
 10
3.949051983894264
 20
34.07037282037264
 30
0.0
 11
10.47780657584862
 21
34.07037282037264
 31
0.0
  0
LWPOLYLINE
  5
A2A6E
330
3858DFB861C84D95
100
AcDbEntity
  8
3
100
AcDbPolyline
 90
       19
 70
     1
 43
0.0
 10
9.96624149346843
 20
29.82037282037264
 10
9.96624149346843
 20
31.13287282037264
 10
9.941241493468425
 20
31.13287282037264
 10
9.941241493468425
 20
31.60187282037263
 42
-0.4142135623730951
 10
9.97224149346843
 20
31.63287282037264
 10
10.34774149346843
 20
31.63287282037264
 42
-0.4142135623730951
 10
10.37874149346842
 20
31.60187282037263
 10
10.37874149346842
 20
31.1457134408062
 42
-0.1989123673796592
 10
10.3696618036852
 20
31.12379313058942
 10
10.3410256459603
 20
31.09515697286451
 42
0.2196211598054495
 10
10.33204351805329
 20
31.07077916025615
 42
-0.1042901008397237
 10
10.19443689848012
 20
30.00557111018591
 42
0.1264117829966397
 10
10.19124149346842
 20
29.78937282037263
 10
10.15999149346842
 20
29.78937282037263
 10
10.15999149346842
 20
29.35137282037265
 42
-0.4142135623730951
 10
10.12899149346843
 20
29.32037282037264
 10
9.97224149346843
 20
29.32037282037264
 42
-0.4142135623730951
 10
9.941241493468425
 20
29.35137282037265
 10
9.941241493468425
 20
29.82037282037264
  0
LWPOLYLINE
  5
A2A8B
330
3858DFB861C84D95
100
AcDbEntity
  8
3
100
AcDbPolyline
 90
       19
 70
     1
 43
0.0
 10
9.96624149346843
 20
15.74681695821564
 10
9.96624149346843
 20
17.05931695821563
 10
9.941241493468425
 20
17.05931695821563
 10
9.941241493468425
 20
17.52831695821563
 42
-0.4142135623730951
 10
9.97224149346843
 20
17.55931695821563
 10
10.34774149346842
 20
17.55931695821563
 42
-0.4142135623730951
 10
10.37874149346842
 20
17.52831695821563
 10
10.37874149346842
 20
17.07215757864919
 42
-0.1989123673796592
 10
10.3696618036852
 20
17.05023726843242
 10
10.3410256459603
 20
17.02160111070752
 42
0.2196211598054495
 10
10.33204351805328
 20
16.99722329809914
 42
-0.1042901008397237
 10
10.19443689848012
 20
15.93201524802891
 42
0.1264117829966397
 10
10.19124149346842
 20
15.71581695821564
 10
10.15999149346842
 20
15.71581695821564
 10
10.15999149346842
 20
15.27781695821565
 42
-0.4142135623730951
 10
10.12899149346842
 20
15.24681695821564
 10
9.97224149346843
 20
15.24681695821564
 42
-0.4142135623730951
 10
9.941241493468425
 20
15.27781695821565
 10
9.941241493468425
 20
15.74681695821564
  0
LWPOLYLINE
  5
A2AA0
330
3858DFB861C84D95
100
AcDbEntity
  8
3
100
AcDbPolyline
 90
        4
 70
     0
 43
0.0
 10
5.316241493468425
 20
13.69664270341858
 10
5.316241493468425
 20
16.37368039120443
 10
5.941241493468425
 20
16.37368039120443
 10
5.941241493468425
 20
13.69664270341857
  0
INSERT
  5
A2AA6
330
3858DFB861C84D95
100
AcDbEntity
  8
ZPAPER
100
AcDbBlockReference
  2
2X4
 10
7.691241493468425
 20
16.37368039120443
 30
0.0
 50
90.0
  0
INSERT
  5
A2AA7
330
3858DFB861C84D95
100
AcDbEntity
  8
ZPAPER
100
AcDbBlockReference
  2
2X4
 10
7.441241493468524
 20
32.32037282037264
 30
0.0
 41
-1.0
 50
180.0
  0
LWPOLYLINE
  5
A2AA8
330
3858DFB861C84D95
100
AcDbEntity
  8
3
100
AcDbPolyline
 90
        4
 70
     0
 43
0.0
 10
5.316241493468524
 20
34.07037282037264
 10
5.316241493468524
 20
30.57037282037264
 10
5.941241493468524
 20
30.57037282037264
 10
5.941241493468524
 20
34.07037282037264
  0
INSERT
  5
A2AAE
330
3858DFB861C84D95
100
AcDbEntity
  8
ZPAPER
100
AcDbBlockReference
  2
2X4
 10
9.441241493468524
 20
32.32037282037264
 30
0.0
 41
-1.0
 50
180.0
  0
LWPOLYLINE
  5
A2AB0
330
3858DFB861C84D95
100
AcDbEntity
  8
3
100
AcDbPolyline
 90
        4
 70
     0
 43
0.0
 10
9.441241493468524
 20
34.07037282037264
 10
9.441241493468524
 20
30.57037282037264
 10
9.941241493468524
 20
30.57037282037264
 10
9.941241493468524
 20
34.07037282037264
  0
LINE
  5
1170A9
330
3858DFB861C84D95
100
AcDbEntity
  8
3
100
AcDbLine
 10
5.941241493468439
 20
16.37368039120443
 30
0.0
 11
5.316241493468439
 21
16.37368039120443
 31
0.0
  0
LINE
  5
1170AA
330
3858DFB861C84D95
100
AcDbEntity
  8
3
100
AcDbLine
 10
5.316241493468439
 20
16.37368039120443
 30
0.0
 11
6.862443576276319
 21
16.37368039120443
 31
0.0
  0
LINE
  5
1170B3
330
3858DFB861C84D95
100
AcDbEntity
  8
3
100
AcDbLine
 10
5.316241493468439
 20
16.19787498480309
 30
0.0
 11
5.316241493468439
 21
16.37368039120443
 31
0.0
  0
LWPOLYLINE
  5
1170BB
330
3858DFB861C84D95
100
AcDbEntity
  8
3
100
AcDbPolyline
 90
        4
 70
     0
 43
0.0
 10
5.316241493468425
 20
13.69664270341858
 10
5.316241493468425
 20
15.81872997677858
 10
4.895799979355729
 20
15.81872997677858
 10
4.72495447106511
 20
13.69664270341858
  0
LWPOLYLINE
  5
1170CD
330
3858DFB861C84D95
100
AcDbEntity
  8
3
100
AcDbPolyline
 90
        6
 70
     0
 43
0.0
 10
9.062974063902338
 20
17.55931695821563
 10
4.175598046964402
 20
16.78523264311735
 42
0.3689194771098288
 10
4.091241493468423
 20
16.68646380905783
 10
4.09124149346843
 20
15.87649170842743
 42
0.4610063144273159
 10
4.206884939972454
 20
15.77772287436792
 10
5.316241493468425
 20
15.95342769121374
  0
LWPOLYLINE
  5
1170D5
330
3858DFB861C84D95
100
AcDbEntity
  8
3
100
AcDbPolyline
 90
        4
 70
     0
 43
0.0
 10
7.969612614580924
 20
16.37368039120443
 10
9.941241493468439
 20
16.68595572771472
 10
9.941241493468439
 20
17.55919323687612
 10
9.066241493468439
 20
17.55963524218826
  0
INSERT
  5
1170EA
330
3858DFB861C84D95
100
AcDbEntity
  8
0
100
AcDbBlockReference
  2
INSL
 10
5.898322991429772
 20
29.30153933020318
 30
0.0
 41
0.6515974806088352
 42
0.7538020064320464
 43
0.6515974806088352
 50
90.0
  0
INSERT
  5
1170EB
330
3858DFB861C84D95
100
AcDbEntity
  8
0
100
AcDbBlockReference
  2
INSL
 10
6.097135885091063
 20
29.30153933020318
 30
0.0
 41
0.6515974806088352
 42
0.7538020064320464
 43
0.6515974806088352
 50
90.0
  0
INSERT
  5
1170EC
330
3858DFB861C84D95
100
AcDbEntity
  8
0
100
AcDbBlockReference
  2
INSL
 10
6.295948778752347
 20
29.30153933020318
 30
0.0
 41
0.6515974806088352
 42
0.7538020064320464
 43
0.6515974806088352
 50
90.0
  0
INSERT
  5
1170ED
330
3858DFB861C84D95
100
AcDbEntity
  8
0
100
AcDbBlockReference
  2
INSL
 10
6.494761672413645
 20
29.30153933020318
 30
0.0
 41
0.6515974806088352
 42
0.7538020064320464
 43
0.6515974806088352
 50
90.0
  0
INSERT
  5
1170EE
330
3858DFB861C84D95
100
AcDbEntity
  8
0
100
AcDbBlockReference
  2
INSL
 10
7.38054784561266
 20
29.30153933020318
 30
0.0
 41
0.6515974806088352
 42
0.7538020064320464
 43
0.6515974806088352
 50
90.0
  0
INSERT
  5
1170EF
330
3858DFB861C84D95
100
AcDbEntity
  8
0
100
AcDbBlockReference
  2
INSL
 10
7.181734951951362
 20
29.30153933020318
 30
0.0
 41
0.6515974806088352
 42
0.7538020064320464
 43
0.6515974806088352
 50
90.0
  0
INSERT
  5
1170F0
330
3858DFB861C84D95
100
AcDbEntity
  8
0
100
AcDbBlockReference
  2
INSL
 10
6.982922058290078
 20
29.30153933020318
 30
0.0
 41
0.6515974806088352
 42
0.7538020064320464
 43
0.6515974806088352
 50
90.0
  0
INSERT
  5
1170F1
330
3858DFB861C84D95
100
AcDbEntity
  8
0
100
AcDbBlockReference
  2
INSL
 10
6.784109164628794
 20
29.30153933020318
 30
0.0
 41
0.6515974806088352
 42
0.7538020064320464
 43
0.6515974806088352
 50
90.0
  0
INSERT
  5
1170F2
330
3858DFB861C84D95
100
AcDbEntity
  8
0
100
AcDbBlockReference
  2
INSL
 10
7.579360739273944
 20
29.30153933020318
 30
0.0
 41
0.6515974806088352
 42
0.7538020064320464
 43
0.6515974806088352
 50
90.0
  0
INSERT
  5
1170F3
330
3858DFB861C84D95
100
AcDbEntity
  8
0
100
AcDbBlockReference
  2
INSL
 10
7.778173632935228
 20
29.30153933020318
 30
0.0
 41
0.6515974806088352
 42
0.7538020064320464
 43
0.6515974806088352
 50
90.0
  0
INSERT
  5
1170F4
330
3858DFB861C84D95
100
AcDbEntity
  8
0
100
AcDbBlockReference
  2
INSL
 10
7.976986526596512
 20
29.30153933020318
 30
0.0
 41
0.6515974806088352
 42
0.7538020064320464
 43
0.6515974806088352
 50
90.0
  0
INSERT
  5
1170F5
330
3858DFB861C84D95
100
AcDbEntity
  8
0
100
AcDbBlockReference
  2
INSL
 10
8.17579942025781
 20
29.30153933020318
 30
0.0
 41
0.6515974806088352
 42
0.7538020064320464
 43
0.6515974806088352
 50
90.0
  0
INSERT
  5
1170F7
330
3858DFB861C84D95
100
AcDbEntity
  8
0
100
AcDbBlockReference
  2
INSL
 10
8.772238101241661
 20
29.30153933020318
 30
0.0
 41
0.6515974806088352
 42
0.7538020064320464
 43
0.6515974806088352
 50
90.0
  0
INSERT
  5
1170F8
330
3858DFB861C84D95
100
AcDbEntity
  8
0
100
AcDbBlockReference
  2
INSL
 10
8.573425207580378
 20
29.30153933020318
 30
0.0
 41
0.6515974806088352
 42
0.7538020064320464
 43
0.6515974806088352
 50
90.0
  0
INSERT
  5
1170F9
330
3858DFB861C84D95
100
AcDbEntity
  8
0
100
AcDbBlockReference
  2
INSL
 10
8.374612313919094
 20
29.30153933020318
 30
0.0
 41
0.6515974806088352
 42
0.7538020064320464
 43
0.6515974806088352
 50
90.0
  0
LWPOLYLINE
  5
117297
330
3858DFB861C84D95
100
AcDbEntity
  8
3
100
AcDbPolyline
 90
        4
 70
     0
 43
0.0
 10
9.441241493468425
 20
13.69664270341858
 10
9.441241493468425
 20
16.60728847924129
 10
9.941241493468425
 20
16.60728847924129
 10
9.941241493468423
 20
13.69664270341858
  0
INSERT
  5
193A4B
330
3858DFB861C84D95
100
AcDbEntity
  8
0
100
AcDbBlockReference
  2
INSL
 10
8.613589912309141
 20
7.466674799430795
 30
0.0
 41
0.7107833052766548
 42
0.7473159275438484
 43
0.7107833052766548
  0
INSERT
  5
193A4C
330
3858DFB861C84D95
100
AcDbEntity
  8
0
100
AcDbBlockReference
  2
INSL
 10
8.613589912309141
 20
7.274709203047402
 30
0.0
 41
0.746644239403766
 42
0.6098198624288953
 43
0.746644239403766
  0
INSERT
  5
193A4D
330
3858DFB861C84D95
100
AcDbEntity
  8
0
100
AcDbBlockReference
  2
INSL
 10
8.613589912309141
 20
7.118062690825524
 30
0.0
 41
0.7994102035949418
 42
0.660997126060372
 43
0.7994102035949418
  0
INSERT
  5
193A4E
330
3858DFB861C84D95
100
AcDbEntity
  8
0
100
AcDbBlockReference
  2
INSL
 10
8.613589912309141
 20
6.948270099987905
 30
0.0
 41
0.8126016337280983
 42
0.679177738427188
 43
0.8126016337280983
  0
INSERT
  5
193A4F
330
3858DFB861C84D95
100
AcDbEntity
  8
0
100
AcDbBlockReference
  2
INSL
 10
8.613589912309141
 20
6.605714597003703
 30
0.0
 41
0.8587717610234228
 42
0.6723664028684695
 43
0.8587717610234228
  0
INSERT
  5
193A50
330
3858DFB861C84D95
100
AcDbEntity
  8
0
100
AcDbBlockReference
  2
INSL
 10
8.613589912309141
 20
6.433001541176013
 30
0.0
 41
0.885154621289736
 42
0.6407327800696985
 43
0.885154621289736
  0
INSERT
  5
193A51
330
3858DFB861C84D95
100
AcDbEntity
  8
0
100
AcDbBlockReference
  2
INSL
 10
8.613589912309141
 20
6.268414322149757
 30
0.0
 41
0.9115374815560493
 42
0.6273405946868654
 43
0.9115374815560493
  0
INSERT
  5
193A52
330
3858DFB861C84D95
100
AcDbEntity
  8
0
100
AcDbBlockReference
  2
INSL
 10
8.613589912309141
 20
6.107267199552787
 30
0.0
 41
0.9247289116892076
 42
0.6764266501390904
 43
0.9247289116892076
  0
INSERT
  5
193A53
330
3858DFB861C84D95
100
AcDbEntity
  8
0
100
AcDbBlockReference
  2
INSL
 10
8.613589912309141
 20
5.93351117413213
 30
0.0
 41
0.9445161787182172
 42
0.6853870599802585
 43
0.9445161787182172
  0
INSERT
  5
193A54
330
3858DFB861C84D95
100
AcDbEntity
  8
0
100
AcDbBlockReference
  2
INSL
 10
8.613589912309141
 20
5.757453457611895
 30
0.0
 41
0.9379203418223642
 42
0.7098327980296899
 43
0.9379203418223642
  0
INSERT
  5
193A55
330
3858DFB861C84D95
100
AcDbEntity
  8
0
100
AcDbBlockReference
  2
INSL
 10
8.613589912309141
 20
5.570237303518665
 30
0.0
 41
0.9379203418223642
 42
0.7098327980296899
 43
0.9379203418223642
  0
INSERT
  5
193A56
330
3858DFB861C84D95
100
AcDbEntity
  8
0
100
AcDbBlockReference
  2
INSL
 10
8.613589912309141
 20
5.383021149425435
 30
0.0
 41
0.9379203418223642
 42
0.7098327980296899
 43
0.9379203418223642
  0
INSERT
  5
193A57
330
3858DFB861C84D95
100
AcDbEntity
  8
0
100
AcDbBlockReference
  2
INSL
 10
8.613589912309141
 20
5.195804995332205
 30
0.0
 41
0.9379203418223642
 42
0.7098327980296899
 43
0.9379203418223642
  0
INSERT
  5
193A59
330
3858DFB861C84D95
100
AcDbEntity
  8
0
100
AcDbBlockReference
  2
INSL
 10
8.613589912309141
 20
4.634156533052515
 30
0.0
 41
0.9379203418223642
 42
0.7098327980296899
 43
0.9379203418223642
  0
INSERT
  5
193A5A
330
3858DFB861C84D95
100
AcDbEntity
  8
0
100
AcDbBlockReference
  2
INSL
 10
8.613589912309141
 20
4.821372687145745
 30
0.0
 41
0.9379203418223642
 42
0.7098327980296899
 43
0.9379203418223642
  0
INSERT
  5
193A5B
330
3858DFB861C84D95
100
AcDbEntity
  8
0
100
AcDbBlockReference
  2
INSL
 10
8.613589912309141
 20
5.008588841238975
 30
0.0
 41
0.9379203418223642
 42
0.7098327980296899
 43
0.9379203418223642
  0
LWPOLYLINE
  5
193A5D
330
3858DFB861C84D95
100
AcDbEntity
  8
3
100
AcDbPolyline
 90
        8
 70
     1
 43
0.0
 10
22.53797573680125
 20
7.989201271469225
 10
22.53797573680125
 20
3.564201271469227
 42
-0.4142135623730951
 10
22.43797573680126
 20
3.464201271469218
 10
21.88797573680126
 20
3.464201271469218
 42
-0.4142135623730951
 10
21.78797573680125
 20
3.564201271469227
 10
21.78797573680125
 20
7.989201271469225
 42
-0.4142135623730951
 10
21.88797573680126
 20
8.089201271469219
 10
22.43797573680126
 20
8.089201271469219
 42
-0.4142135623730948
  0
INSERT
  5
193A67
330
3858DFB861C84D95
100
AcDbEntity
  8
ZPAPER
100
AcDbBlockReference
  2
2X4
 10
22.53797573680127
 20
5.714201271469219
 30
0.0
 41
-1.0
  0
INSERT
  5
193A68
330
3858DFB861C84D95
100
AcDbEntity
  8
ZPAPER
100
AcDbBlockReference
  2
2X4
 10
24.03797573680126
 20
5.714201271469233
 30
0.0
 41
-1.0
  0
LINE
  5
193A69
330
3858DFB861C84D95
100
AcDbEntity
  8
3
100
AcDbLine
 10
25.53797573680127
 20
9.48087762068526
 30
0.0
 11
25.53797573680127
 21
2.887303323158403
 31
0.0
  0
LWPOLYLINE
  5
193A6A
330
3858DFB861C84D95
100
AcDbEntity
  8
3
100
AcDbPolyline
 90
        4
 70
     0
 43
0.0
 10
25.53797573680127
 20
3.464201271469218
 10
22.53797573680127
 20
3.464201271469232
 10
22.53797573680127
 20
3.964201271469232
 10
25.53797573680127
 20
3.964201271469232
  0
LWPOLYLINE
  5
193A72
330
3858DFB861C84D95
100
AcDbEntity
  8
3
100
AcDbPolyline
 90
        4
 70
     0
 43
0.0
 10
25.53797573680128
 20
8.714201271469233
 10
23.41297573680125
 20
8.714201271469233
 10
23.41297573680125
 20
8.089201271469219
 10
25.53797573680128
 20
8.089201271469219
  0
LWPOLYLINE
  5
193A78
330
3858DFB861C84D95
100
AcDbEntity
  8
3
100
AcDbPolyline
 90
        4
 70
     0
 43
0.0
 10
25.53797573680127
 20
8.089201271469219
 10
22.53797573680127
 20
8.089201271469219
 10
22.53797573680127
 20
7.464201271469219
 10
25.53797573680127
 20
7.464201271469219
  0
LWPOLYLINE
  5
193A7E
330
3858DFB861C84D95
100
AcDbEntity
  8
3
100
AcDbPolyline
 90
       19
 70
     1
 43
0.0
 10
21.78797573680125
 20
3.439201271469227
 10
23.10047573680125
 20
3.439201271469227
 10
23.10047573680125
 20
3.464201271469232
 10
23.56947573680126
 20
3.464201271469232
 42
-0.4142135623730951
 10
23.60047573680125
 20
3.433201271469227
 10
23.60047573680125
 20
3.057701271469224
 42
-0.4142135623730951
 10
23.56947573680126
 20
3.026701271469232
 10
23.11331635723481
 20
3.026701271469232
 42
-0.1989123673796592
 10
23.09139604701805
 20
3.035780961252439
 10
23.06275988929314
 20
3.064417118977343
 42
0.2196211598054495
 10
23.03838207668476
 20
3.073399246884361
 42
-0.1042901008397237
 10
21.97317402661454
 20
3.211005866457523
 42
0.1264117829966397
 10
21.75697573680126
 20
3.214201271469232
 10
21.75697573680126
 20
3.245451271469232
 10
21.31897573680126
 20
3.245451271469232
 42
-0.4142135623730951
 10
21.28797573680127
 20
3.276451271469224
 10
21.28797573680125
 20
3.433201271469227
 42
-0.4142135623730951
 10
21.31897573680126
 20
3.464201271469232
 10
21.78797573680125
 20
3.464201271469232
  0
LWPOLYLINE
  5
193A93
330
3858DFB861C84D95
100
AcDbEntity
  8
3
100
AcDbPolyline
 90
        8
 70
     1
 43
0.0
 10
21.06047573680126
 20
4.339201271469218
 10
21.76547573680126
 20
4.339201271469218
 42
-0.4142135623730951
 10
21.78797573680126
 20
4.316701271469224
 10
21.78797573680126
 20
3.486701271469212
 42
-0.4142135623730951
 10
21.76547573680126
 20
3.464201271469218
 10
21.06047573680126
 20
3.464201271469218
 42
-0.4142135623730951
 10
21.03797573680127
 20
3.486701271469212
 10
21.03797573680127
 20
4.316701271469224
 42
-0.4142135623730951
  0
INSERT
  5
193A9D
330
3858DFB861C84D95
100
AcDbEntity
  8
3
100
AcDbBlockReference
  2
908
 10
23.41297573680125
 20
8.089201271469219
 30
0.0
  0
LWPOLYLINE
  5
193A9E
330
3858DFB861C84D95
100
AcDbEntity
  8
3
100
AcDbPolyline
 90
        8
 70
     1
 43
0.0
 10
21.30297573680125
 20
7.589201271469219
 10
21.77297573680125
 20
7.589201271469219
 42
0.4142135623730951
 10
21.78797573680125
 20
7.60420127146922
 10
21.78797573680125
 20
8.074201271469219
 42
0.4142135623730951
 10
21.77297573680125
 20
8.089201271469219
 10
21.30297573680125
 20
8.089201271469219
 42
0.4142135623730951
 10
21.28797573680125
 20
8.074201271469219
 10
21.28797573680125
 20
7.60420127146922
 42
0.4142135623730951
  0
INSERT
  5
193AA8
330
3858DFB861C84D95
100
AcDbEntity
  8
0
100
AcDbBlockReference
  2
INSL
 10
21.78797573680125
 20
7.274709203047402
 30
0.0
 41
-0.746644239403766
 42
0.6098198624288953
 43
0.746644239403766
  0
INSERT
  5
193AA9
330
3858DFB861C84D95
100
AcDbEntity
  8
0
100
AcDbBlockReference
  2
INSL
 10
21.78797573680125
 20
7.466674799430795
 30
0.0
 41
-0.7107833052766548
 42
0.7473159275438484
 43
0.7107833052766548
  0
INSERT
  5
193AAA
330
3858DFB861C84D95
100
AcDbEntity
  8
0
100
AcDbBlockReference
  2
INSL
 10
21.78797573680125
 20
7.118062690825524
 30
0.0
 41
-0.7994102035949418
 42
0.660997126060372
 43
0.7994102035949418
  0
INSERT
  5
193AAB
330
3858DFB861C84D95
100
AcDbEntity
  8
0
100
AcDbBlockReference
  2
INSL
 10
21.78797573680125
 20
6.948270099987905
 30
0.0
 41
-0.8126016337280983
 42
0.679177738427188
 43
0.8126016337280983
  0
INSERT
  5
193AAC
330
3858DFB861C84D95
100
AcDbEntity
  8
0
100
AcDbBlockReference
  2
INSL
 10
21.78797573680125
 20
6.605714597003703
 30
0.0
 41
-0.8587717610234228
 42
0.6723664028684695
 43
0.8587717610234228
  0
INSERT
  5
193AAD
330
3858DFB861C84D95
100
AcDbEntity
  8
0
100
AcDbBlockReference
  2
INSL
 10
21.78797573680125
 20
6.433001541176013
 30
0.0
 41
-0.885154621289736
 42
0.6407327800696985
 43
0.885154621289736
  0
INSERT
  5
193AAE
330
3858DFB861C84D95
100
AcDbEntity
  8
0
100
AcDbBlockReference
  2
INSL
 10
21.78797573680125
 20
6.107267199552787
 30
0.0
 41
-0.9247289116892076
 42
0.6764266501390904
 43
0.9247289116892076
  0
INSERT
  5
193AAF
330
3858DFB861C84D95
100
AcDbEntity
  8
0
100
AcDbBlockReference
  2
INSL
 10
21.78797573680125
 20
6.268414322149757
 30
0.0
 41
-0.9115374815560493
 42
0.6273405946868654
 43
0.9115374815560493
  0
INSERT
  5
193AB0
330
3858DFB861C84D95
100
AcDbEntity
  8
0
100
AcDbBlockReference
  2
INSL
 10
21.78797573680125
 20
5.93351117413213
 30
0.0
 41
-0.9445161787182172
 42
0.6853870599802585
 43
0.9445161787182172
  0
INSERT
  5
193AB1
330
3858DFB861C84D95
100
AcDbEntity
  8
0
100
AcDbBlockReference
  2
INSL
 10
21.78797573680125
 20
5.757453457611895
 30
0.0
 41
-0.9379203418223642
 42
0.7098327980296899
 43
0.9379203418223642
  0
INSERT
  5
193AB2
330
3858DFB861C84D95
100
AcDbEntity
  8
0
100
AcDbBlockReference
  2
INSL
 10
21.78797573680125
 20
5.570237303518665
 30
0.0
 41
-0.9379203418223642
 42
0.7098327980296899
 43
0.9379203418223642
  0
INSERT
  5
193AB3
330
3858DFB861C84D95
100
AcDbEntity
  8
0
100
AcDbBlockReference
  2
INSL
 10
21.78797573680125
 20
5.383021149425435
 30
0.0
 41
-0.9379203418223642
 42
0.7098327980296899
 43
0.9379203418223642
  0
INSERT
  5
193AB4
330
3858DFB861C84D95
100
AcDbEntity
  8
0
100
AcDbBlockReference
  2
INSL
 10
21.78797573680125
 20
5.195804995332205
 30
0.0
 41
-0.9379203418223642
 42
0.7098327980296899
 43
0.9379203418223642
  0
INSERT
  5
193AB5
330
3858DFB861C84D95
100
AcDbEntity
  8
0
100
AcDbBlockReference
  2
INSL
 10
21.78797573680125
 20
5.008588841238975
 30
0.0
 41
-0.9379203418223642
 42
0.7098327980296899
 43
0.9379203418223642
  0
INSERT
  5
193AB6
330
3858DFB861C84D95
100
AcDbEntity
  8
0
100
AcDbBlockReference
  2
INSL
 10
21.78797573680125
 20
4.821372687145745
 30
0.0
 41
-0.9379203418223642
 42
0.7098327980296899
 43
0.9379203418223642
  0
INSERT
  5
193AB7
330
3858DFB861C84D95
100
AcDbEntity
  8
0
100
AcDbBlockReference
  2
INSL
 10
21.78797573680125
 20
4.634156533052515
 30
0.0
 41
-0.9379203418223642
 42
0.7098327980296899
 43
0.9379203418223642
  0
TEXT
  5
6542F7
330
3858DFB861C84D95
100
AcDbEntity
  8
DIM
100
AcDbText
 10
13.83263224588265
 20
12.63322883461948
 30
0.0
 40
0.4
  1
STEEP SLOPE INSTALLATION
 51
10.0
  7
ROMANS
100
AcDbText
  0
TEXT
  5
6542F8
330
3858DFB861C84D95
100
AcDbEntity
  8
DIM
100
AcDbText
 10
16.65561841361258
 20
20.03134793251012
 30
0.0
 40
0.4
  1
SILL DETAIL
 51
10.0
  7
ROMANS
100
AcDbText
  0
INSERT
  5
6542F9
330
3858DFB861C84D95
100
AcDbEntity
  8
0
100
AcDbBlockReference
  2
INSL90
 10
17.68200588368864
 20
17.84700144671123
 30
0.0
 41
1.035180904826745
 42
1.25479856498174
 43
1.035180904826745
  0
INSERT
  5
6542FA
330
3858DFB861C84D95
100
AcDbEntity
  8
0
100
AcDbBlockReference
  2
INSL90
 10
18.06635507031777
 20
17.88797443816503
 30
0.0
 41
0.9429371390211258
 42
1.167730939177303
 43
0.9429371390211258
  0
INSERT
  5
6542FB
330
3858DFB861C84D95
100
AcDbEntity
  8
0
100
AcDbBlockReference
  2
INSL90
 10
18.31233885189698
 20
17.90333936685555
 30
0.0
 41
0.8404436327330415
 42
1.090906447445632
 43
0.8404436327330415
  0
INSERT
  5
6542FC
330
3858DFB861C84D95
100
AcDbEntity
  8
0
100
AcDbBlockReference
  2
INSL90
 10
18.54137130828801
 20
17.92393092931544
 30
0.0
 41
0.749777068708994
 42
1.039585179325626
 43
0.749777068708994
  0
INSERT
  5
6542FD
330
3858DFB861C84D95
100
AcDbEntity
  8
0
100
AcDbBlockReference
  2
INSL90
 10
18.78578915465109
 20
17.9571329903299
 30
0.0
 41
0.7528539305816118
 42
1.009994531229178
 43
0.7528539305816118
  0
INSERT
  5
6542FE
330
3858DFB861C84D95
100
AcDbEntity
  8
0
100
AcDbBlockReference
  2
INSL90
 10
18.98665241606112
 20
17.9571329903299
 30
0.0
 41
0.7615760058667008
 42
0.9345883266024053
 43
0.7615760058667008
  0
INSERT
  5
6542FF
330
3858DFB861C84D95
100
AcDbEntity
  8
0
100
AcDbBlockReference
  2
INSL90
 10
19.18233742431604
 20
17.9571329903299
 30
0.0
 41
0.7419425829722286
 42
0.8675607577351733
 43
0.7419425829722286
  0
INSERT
  5
654300
330
3858DFB861C84D95
100
AcDbEntity
  8
0
100
AcDbBlockReference
  2
INSL90
 10
19.35292928407484
 20
17.9571329903299
 30
0.0
 41
0.6468015418870934
 42
0.8172900052242901
 43
0.6468015418870934
  0
INSERT
  5
654301
330
3858DFB861C84D95
100
AcDbEntity
  8
0
100
AcDbBlockReference
  2
INSL90
 10
19.52466060096931
 20
17.9571329903299
 30
0.0
 41
0.6511218103530787
 42
0.7502622846361327
 43
0.6511218103530787
  0
INSERT
  5
654302
330
3858DFB861C84D95
100
AcDbEntity
  8
0
100
AcDbBlockReference
  2
INSL90
 10
19.67804757626319
 20
17.9571329903299
 30
0.0
 41
0.5815689697372513
 42
0.6832347157689008
 43
0.5815689697372513
  0
INSERT
  5
654303
330
3858DFB861C84D95
100
AcDbEntity
  8
0
100
AcDbBlockReference
  2
INSL90
 10
19.82391728580117
 20
17.9571329903299
 30
0.0
 41
0.5530671462119621
 42
0.6329639632580176
 43
0.5530671462119621
  0
INSERT
  5
654304
330
3858DFB861C84D95
100
AcDbEntity
  8
0
100
AcDbBlockReference
  2
INSL90
 10
19.97608602138609
 20
17.9571329903299
 30
0.0
 41
0.5769499959874942
 42
0.5826932107471344
 43
0.5769499959874942
  0
LWPOLYLINE
  5
654305
330
3858DFB861C84D95
100
AcDbEntity
  8
10
100
AcDbPolyline
 90
       11
 70
     0
 43
0.0
 10
16.95538640499417
 20
17.78389578388592
 10
16.95538640499417
 20
16.75409818058456
 42
0.493145426031304
 10
16.97426869067071
 20
16.73960929319023
 10
17.41859457076369
 20
16.85866605393739
 10
17.40565361850856
 20
16.90696234525184
 10
17.23758252473426
 20
16.861927831404
 10
17.1989454916827
 20
16.8515750695999
 10
17.00538640499418
 20
16.799711068634
 10
17.00538640499418
 20
17.59409818058457
 10
17.00538640499418
 20
17.63409818058456
 10
17.00538640499418
 20
17.78769788575107
  0
LINE
  5
654312
330
3858DFB861C84D95
100
AcDbEntity
  8
10
100
AcDbLine
 10
16.95538640499417
 20
17.78389578388592
 30
0.0
 11
17.00538640499418
 21
17.78769788575107
 31
0.0
  0
LWPOLYLINE
  5
654314
330
3858DFB861C84D95
100
AcDbEntity
  8
3
100
AcDbPolyline
 90
        4
 70
     0
 43
0.0
 10
18.40268864601339
 20
16.0809955010996
 10
20.95722046287893
 20
16.7574104937143
 10
20.95722046287893
 20
17.55919323687612
 10
20.08222046287893
 20
17.55963524218826
  0
LWPOLYLINE
  5
65431A
330
3858DFB861C84D95
100
AcDbEntity
  8
3
100
AcDbPolyline
 90
        6
 70
     0
 43
0.0
 10
20.07895303331283
 20
17.55931695821563
 10
15.19650421509347
 20
16.26649235547891
 42
0.3402768629097282
 10
15.10722046287892
 20
16.15049014807757
 10
15.10722046287893
 20
15.36429821222524
 42
0.4922289978639327
 10
15.25793671066438
 20
15.24829600482391
 10
16.33222046287892
 20
15.5327558152372
  0
LWPOLYLINE
  5
654322
330
3858DFB861C84D95
100
AcDbEntity
  8
3
100
AcDbPolyline
 90
        4
 70
     0
 43
0.0
 10
16.33222046287892
 20
13.63682714410625
 10
16.33222046287892
 20
16.0809955010996
 10
16.95722046287892
 20
16.0809955010996
 10
16.95722046287892
 20
13.63682714410626
  0
LWPOLYLINE
  5
654328
330
3858DFB861C84D95
100
AcDbEntity
  8
3
100
AcDbPolyline
 90
        4
 70
     0
 43
0.0
 10
20.45722046287892
 20
13.63682714410626
 10
20.45722046287892
 20
16.57095124557806
 10
20.95722046287892
 20
16.57095124557806
 10
20.95722046287892
 20
13.63682714410626
  0
LWPOLYLINE
  5
65432E
330
3858DFB861C84D95
100
AcDbEntity
  8
3
100
AcDbPolyline
 90
        4
 70
     0
 43
0.0
 10
16.33222046287892
 20
13.84656613574028
 10
16.33222046287892
 20
15.36504991407075
 10
15.91177894876622
 20
15.36504991407075
 10
15.77264277784592
 20
13.63682714410625
  0
LINE
  5
654334
330
3858DFB861C84D95
100
AcDbEntity
  8
3
  6
Continuous
100
AcDbLine
 10
14.96503095330466
 20
13.63682714410625
 30
0.0
 11
21.49378554525901
 21
13.63682714410625
 31
0.0
  0
LWPOLYLINE
  5
654335
330
3858DFB861C84D95
100
AcDbEntity
  8
3
100
AcDbPolyline
 90
        6
 70
     1
 43
0.0
 10
21.7068487682868
 20
17.55931695821563
 10
20.0818487682868
 20
17.55931695821563
 10
20.0818487682868
 20
18.30931695821563
 10
21.7068487682868
 20
18.30931695821563
 42
-0.414213562373095
 10
21.9568487682868
 20
18.05931695821563
 10
21.9568487682868
 20
17.80931695821563
 42
-0.4142135623730951
  0
LWPOLYLINE
  5
65433D
330
3858DFB861C84D95
100
AcDbEntity
  8
3
100
AcDbPolyline
 90
       19
 70
     1
 43
0.0
 10
20.98222046287892
 20
15.74681695821564
 10
20.98222046287892
 20
17.05931695821563
 10
20.95722046287892
 20
17.05931695821563
 10
20.95722046287892
 20
17.52831695821563
 42
-0.4142135623730951
 10
20.98822046287892
 20
17.55931695821563
 10
21.36372046287891
 20
17.55931695821563
 42
-0.4142135623730951
 10
21.39472046287892
 20
17.52831695821563
 10
21.39472046287892
 20
17.07215757864919
 42
-0.1989123673796592
 10
21.38564077309569
 20
17.05023726843242
 10
21.35700461537079
 20
17.02160111070752
 42
0.2196211598054495
 10
21.34802248746377
 20
16.99722329809914
 42
-0.1042901008397237
 10
21.21041586789061
 20
15.93201524802891
 42
0.1264117829966397
 10
21.20722046287891
 20
15.71581695821564
 10
21.17597046287892
 20
15.71581695821564
 10
21.17597046287892
 20
15.27781695821565
 42
-0.4142135623730951
 10
21.14497046287891
 20
15.24681695821564
 10
20.98822046287892
 20
15.24681695821564
 42
-0.4142135623730951
 10
20.95722046287892
 20
15.27781695821565
 10
20.95722046287892
 20
15.74681695821564
  0
INSERT
  5
654352
330
3858DFB861C84D95
100
AcDbEntity
  8
ZPAPER
100
AcDbBlockReference
  2
2X4
 10
18.70722046287891
 20
16.0809955010996
 30
0.0
 50
90.0
  0
LINE
  5
654353
330
3858DFB861C84D95
100
AcDbEntity
  8
3
100
AcDbLine
 10
16.95722046287893
 20
16.0809955010996
 30
0.0
 11
16.33222046287893
 21
16.0809955010996
 31
0.0
  0
LINE
  5
654354
330
3858DFB861C84D95
100
AcDbEntity
  8
3
100
AcDbLine
 10
16.33222046287893
 20
15.90519009469826
 30
0.0
 11
16.33222046287893
 21
16.0809955010996
 31
0.0
  0
TEXT
  5
654355
330
3858DFB861C84D95
100
AcDbEntity
  8
DIM
100
AcDbText
 10
15.31360215634682
 20
30.95238095238095
 30
0.0
 40
0.4
  1
REPLACEMENT INSTALLATION
  7
ROMAND
100
AcDbText
  0
TEXT
  5
654356
330
3858DFB861C84D95
100
AcDbEntity
  8
DIM
100
AcDbText
 10
15.31360215634682
 20
30.3047619047619
 30
0.0
 40
0.4
  1
2 x 4 CONSTRUCTION
  7
ROMAND
100
AcDbText
  0
TEXT
  5
654357
330
3858DFB861C84D95
100
AcDbEntity
  8
DIM
100
AcDbText
 10
15.31360215634682
 20
29.65714285714285
 30
0.0
 40
0.4
  1
5/8" SHEATHING
  7
ROMAND
100
AcDbText
  0
TEXT
  5
654358
330
3858DFB861C84D95
100
AcDbEntity
  8
DIM
100
AcDbText
 10
15.31360215634682
 20
29.0095238095238
 30
0.0
 40
0.4
  1
1/2" DRYWALL
  7
ROMAND
100
AcDbText
  0
INSERT
  5
654359
330
3858DFB861C84D95
100
AcDbEntity
  8
0
100
AcDbBlockReference
  2
INSL90
 10
7.004185109342955
 20
17.87807555884632
 30
0.0
 41
0.7202858563451287
 42
0.8556824387096639
 43
0.7202858563451287
  0
INSERT
  5
65435A
330
3858DFB861C84D95
100
AcDbEntity
  8
0
100
AcDbBlockReference
  2
INSL90
 10
7.205839847615976
 20
17.88023014754726
 30
0.0
 41
0.7043652068151971
 42
0.826363434108714
 43
0.7043652068151971
  0
INSERT
  5
65435B
330
3858DFB861C84D95
100
AcDbEntity
  8
0
100
AcDbBlockReference
  2
INSL90
 10
7.387043836633608
 20
17.91192206724453
 30
0.0
 41
0.7043652068151971
 42
0.826363434108714
 43
0.7043652068151971
  0
INSERT
  5
65435C
330
3858DFB861C84D95
100
AcDbEntity
  8
0
100
AcDbBlockReference
  2
INSL90
 10
7.586437960138923
 20
17.92805836883777
 30
0.0
 41
0.6639093105477106
 42
0.8137035138199486
 43
0.6639093105477106
  0
INSERT
  5
65435D
330
3858DFB861C84D95
100
AcDbEntity
  8
0
100
AcDbBlockReference
  2
INSL90
 10
7.79162111515027
 20
17.9571329903299
 30
0.0
 41
0.6616486492348992
 42
0.8161759185521439
 43
0.6616486492348992
  0
INSERT
  5
65435E
330
3858DFB861C84D95
100
AcDbEntity
  8
0
100
AcDbBlockReference
  2
INSL90
 10
7.958883350375977
 20
17.9571329903299
 30
0.0
 41
0.6341772215651762
 42
0.7801221742957943
 43
0.6341772215651762
  0
INSERT
  5
65435F
330
3858DFB861C84D95
100
AcDbEntity
  8
0
100
AcDbBlockReference
  2
INSL90
 10
8.111001090336927
 20
17.9571329903299
 30
0.0
 41
0.5767566453302067
 42
0.7440684300394445
 43
0.5767566453302067
  0
INSERT
  5
654360
330
3858DFB861C84D95
100
AcDbEntity
  8
0
100
AcDbBlockReference
  2
INSL90
 10
8.263369530529416
 20
17.9571329903299
 30
0.0
 41
0.5777071789403028
 42
0.7080146857830947
 43
0.5777071789403028
  0
INSERT
  5
654361
330
3858DFB861C84D95
100
AcDbEntity
  8
0
100
AcDbBlockReference
  2
INSL90
 10
8.411230801719412
 20
17.9571329903299
 30
0.0
 41
0.5606181814671505
 42
0.6764676595587922
 43
0.5606181814671505
  0
INSERT
  5
654362
330
3858DFB861C84D95
100
AcDbEntity
  8
0
100
AcDbBlockReference
  2
INSL90
 10
8.546114363559869
 20
17.9571329903299
 30
0.0
 41
0.5114130058549585
 42
0.6494273513665228
 43
0.5114130058549585
  0
INSERT
  5
654363
330
3858DFB861C84D95
100
AcDbEntity
  8
0
100
AcDbBlockReference
  2
INSL90
 10
8.679198719701744
 20
17.9571329903299
 30
0.0
 41
0.504591291022491
 42
0.6178803251422203
 43
0.504591291022491
  0
INSERT
  5
654364
330
3858DFB861C84D95
100
AcDbEntity
  8
0
100
AcDbBlockReference
  2
INSL90
 10
8.821211735745862
 20
17.9571329903299
 30
0.0
 41
0.5384444361837968
 42
0.5908400169499508
 43
0.5384444361837968
  0
INSERT
  5
654365
330
3858DFB861C84D95
100
AcDbEntity
  8
0
100
AcDbBlockReference
  2
INSL90
 10
8.960107051975601
 20
17.9571329903299
 30
0.0
 41
0.5266236315455864
 42
0.553568105474394
 43
0.5266236315455864
  0
TEXT
  5
654366
330
3858DFB861C84D95
100
AcDbEntity
  8
DIM
100
AcDbText
 10
15.31360215634682
 20
31.6
 30
0.0
 40
0.4
  1
VINYL ROLLING WINDOW
  7
ROMAND
100
AcDbText
  0
INSERT
  5
C2F9F9
330
3858DFB861C84D95
100
AcDbEntity
  8
4
100
AcDbBlockReference
  2
SCREW
 10
20.95251208027329
 20
5.253135146827915
 30
0.0
 41
4.0
 42
4.0
 43
4.0
  0
INSERT
  5
C2F9FA
330
3858DFB861C84D95
100
AcDbEntity
  8
4
100
AcDbBlockReference
  2
SCREW
 10
9.449053568837086
 20
5.253135146827915
 30
0.0
 41
-4.0
 42
4.0
 43
4.0
  0
TEXT
  5
C2F9FB
330
3858DFB861C84D95
100
AcDbEntity
  8
ADCADD_FRZ
100
AcDbText
 10
0.4410000000000001
 20
3.759999999999999
 30
0.0
 40
0.125
  1
MODELER_DEFAULT_VALUES
100
AcDbText
1001
TB_S_MPD
1070
   100
1000
MODELER
1070
   101
1000
TOOLBOX 12.0 MODELER 1.0
1070
   102
1000
0
  0
TEXT
  5
C2F9FC
330
3858DFB861C84D95
100
AcDbEntity
  8
ADCADD_FRZ
100
AcDbText
 10
0.4410000000000001
 20
4.259999999999999
 30
0.0
 40
0.125
  1
STEEL_DEFAULT_VALUES
100
AcDbText
1001
TB_S_MPD
1070
   100
1000
STEEL
1070
   101
1000
TOOLBOX 12.0 STEEL 1.0
1070
   102
1000
Section
1070
   103
1000
AISC
1070
   104
1000
C
1070
   105
1000
<Current>
1070
   106
1000
HIDDEN
1070
   116
1000
1
1070
   117
1000
1
1070
   301
1040
29000000.0
  0
TEXT
  5
C2F9FD
330
3858DFB861C84D95
100
AcDbEntity
  8
ADCADD_FRZ
100
AcDbText
 10
0.4410000000000001
 20
4.009999999999999
 30
0.0
 40
0.125
  1
DETVIEW_DEFAULT_VALUES
100
AcDbText
1001
TB_S_MPD
1070
   100
1000
DETVIEW
1070
   101
1000
TOOLBOX 12.0 DETVIEW 12.0
1070
   301
1040
5.0
1070
   102
1000
A
1070
   302
1040
0.125
1070
   105
1000
TOOLBOX
1070
   106
1000
DETAIL {1} SCALE: {2}X
1070
   107
1000
SEE DETAIL {1}
  0
TEXT
  5
C2F9FE
330
3858DFB861C84D95
100
AcDbEntity
  8
ADCADD_FRZ
100
AcDbText
 10
4.722
 20
4.009999999999999
 30
0.0
 40
0.125
  1
CYLPART_DEFAULT_VALUES
100
AcDbText
1001
TB_S_MPD
1070
   100
1000
CYLPART
1070
   101
1000
TOOLBOX 12.0 CYLPART 12.0
1070
   102
1000
0
1070
   103
1000
0
1070
   104
1000
0
1070
   105
1000
none
1070
   106
1000
d1d2
1070
   107
1000
chamfer
1070
   108
1000
fillet
1070
   109
1000
sharp
1070
   110
1000
1
1070
   301
1040
0.125
1070
   302
1040
0.125
1070
   303
1040
0.25
  0
LWPOLYLINE
  5
218269511EE13F78
330
3858DFB861C84D95
100
AcDbEntity
  8
THIN
100
AcDbPolyline
 90
        6
 70
     1
 43
0.0
 10
5.705374679784417
 20
19.89012265278407
 10
5.705374679784417
 20
19.65512265278407
 42
0.4142135623730951
 10
5.720374679784417
 20
19.64012265278407
 10
6.690374679784416
 20
19.64012265278407
 42
0.4142135623730951
 10
6.705374679784417
 20
19.65512265278407
 10
6.705374679784417
 20
19.89012265278407
  0
LWPOLYLINE
  5
218269511EE13F80
330
3858DFB861C84D95
100
AcDbEntity
  8
THIN
100
AcDbPolyline
 90
        6
 70
     1
 43
0.0
 10
7.645374679784407
 20
19.89012265278407
 10
7.645374679784407
 20
19.65512265278407
 42
0.4142135623730951
 10
7.660374679784408
 20
19.64012265278407
 10
8.630374679784406
 20
19.64012265278407
 42
0.4142135623730951
 10
8.645374679784406
 20
19.65512265278407
 10
8.645374679784406
 20
19.89012265278407
  0
LWPOLYLINE
  5
218269511EE13F88
330
3858DFB861C84D95
100
AcDbEntity
  8
THIN
100
AcDbPolyline
 90
        6
 70
     1
 43
0.0
 10
7.645374679784407
 20
27.07078673264597
 10
7.645374679784407
 20
27.30578673264598
 42
-0.4142135623730951
 10
7.660374679784408
 20
27.32078673264598
 10
8.630374679784406
 20
27.32078673264598
 42
-0.4142135623730951
 10
8.645374679784406
 20
27.30578673264598
 10
8.645374679784406
 20
27.07078673264597
  0
LWPOLYLINE
  5
218269511EE13F90
330
3858DFB861C84D95
100
AcDbEntity
  8
THIN
100
AcDbPolyline
 90
        6
 70
     1
 43
0.0
 10
5.705374679784417
 20
27.07078673264597
 10
5.705374679784417
 20
27.30578673264597
 42
-0.4142135623730951
 10
5.720374679784417
 20
27.32078673264597
 10
6.690374679784416
 20
27.32078673264597
 42
-0.4142135623730951
 10
6.705374679784417
 20
27.30578673264597
 10
6.705374679784417
 20
27.07078673264597
  0
LWPOLYLINE
  5
218269511EE1400A
330
3858DFB861C84D95
100
AcDbEntity
  8
CYAN
100
AcDbPolyline
 90
        4
 70
     0
 43
0.0
 10
17.49716732332621
 20
4.821206152377325
 10
19.44767036980931
 20
4.821206152377324
 10
19.44767036980931
 20
4.919206152377328
 10
17.50853636709509
 20
4.919206152377335
  0
LWPOLYLINE
  5
218269511EE14010
330
3858DFB861C84D95
100
AcDbEntity
  8
CYAN
100
AcDbPolyline
 90
        4
 70
     0
 43
0.0
 10
17.52087021029567
 20
5.696206152377326
 10
19.44767036980931
 20
5.696206152377326
 10
19.44767036980931
 20
5.598206152377326
 10
17.50883631016604
 20
5.598206152377326
  0
LWPOLYLINE
  5
218269511EE14016
330
3858DFB861C84D95
100
AcDbEntity
  8
THIN
100
AcDbPolyline
 90
        4
 70
     0
 43
0.0
 10
17.47701891753562
 20
4.647528945426686
 10
17.56063336620174
 20
5.368276981572937
 10
17.46626150308734
 20
5.251491367580432
 10
17.53369068527739
 20
5.800611751117028
  0
LWPOLYLINE
  5
218269511EE1401C
330
3858DFB861C84D95
100
AcDbEntity
  8
THIN
100
AcDbPolyline
 90
        4
 70
     0
 43
0.0
 10
17.40794213900803
 20
4.647203847745147
 10
17.47164021031148
 20
5.19627473837058
 10
17.37726834719707
 20
5.079489124378075
 10
17.46577252970333
 20
5.800237160524325
  0
LWPOLYLINE
  5
218269511EE14022
330
3858DFB861C84D95
100
AcDbEntity
  8
CYAN
100
AcDbPolyline
 90
        4
 70
     0
 43
0.0
 10
17.4281282595922
 20
4.821206152377327
 10
15.44699820964327
 20
4.821206152377322
 10
15.44699820964327
 20
4.919206152377326
 10
17.43949730336108
 20
4.919206152377331
  0
LWPOLYLINE
  5
218269511EE14028
330
3858DFB861C84D95
100
AcDbEntity
  8
CYAN
100
AcDbPolyline
 90
        2
 70
     0
 43
0.0
 10
17.45299805253571
 20
5.696206152377323
 10
15.44699820964327
 20
5.696206152377325
  0
LWPOLYLINE
  5
218269511EE1402C
330
3858DFB861C84D95
100
AcDbEntity
  8
CYAN
100
AcDbPolyline
 90
        3
 70
     0
 43
0.0
 10
15.44699820964327
 20
5.696206152377325
 10
15.44699820964327
 20
5.598206152377324
 10
17.44096415240608
 20
5.598206152377324
  0
LWPOLYLINE
  5
218269511EE14054
330
3858DFB861C84D95
100
AcDbEntity
  8
THIN
100
AcDbPolyline
 90
        4
 70
     0
 43
0.0
 10
12.8861061567061
 20
6.588194085928933
 10
12.94980422800955
 20
7.137264976554367
 10
12.85543236489515
 20
7.020479362561862
 10
12.9439365474014
 20
7.741227398708113
  0
LWPOLYLINE
  5
218269511EE1405A
330
3858DFB861C84D95
100
AcDbEntity
  8
THIN
100
AcDbPolyline
 90
        4
 70
     0
 43
0.0
 10
12.95518293523368
 20
6.588519183610473
 10
13.03879738389982
 20
7.309267219756724
 10
12.94442552078541
 20
7.192481605764219
 10
13.01185470297546
 20
7.741601989300815
  0
LWPOLYLINE
  5
218269511EE14083
330
3858DFB861C84D95
100
AcDbEntity
  8
CYAN
100
AcDbPolyline
 90
        4
 70
     0
 43
0.0
 10
12.99903422799374
 20
7.63719639056111
 10
14.94656773395373
 20
7.63719639056111
 10
14.94656773395373
 20
7.53919639056111
 10
12.98700032786411
 20
7.53919639056111
  0
LWPOLYLINE
  5
218269511EE14089
330
3858DFB861C84D95
100
AcDbEntity
  8
CYAN
100
AcDbPolyline
 90
        4
 70
     0
 43
0.0
 10
12.97533134102428
 20
6.762196390561109
 10
14.94656773395373
 20
6.762196390561107
 10
14.94656773395373
 20
6.860196390561111
 10
12.98670038479316
 20
6.860196390561118
  0
LWPOLYLINE
  5
218269511EE1408F
330
3858DFB861C84D95
100
AcDbEntity
  8
CYAN
100
AcDbPolyline
 90
        3
 70
     0
 43
0.0
 10
10.94684942839308
 20
7.637196390561112
 10
10.94684942839308
 20
7.539196390561111
 10
12.91912817010415
 20
7.539196390561111
  0
LWPOLYLINE
  5
218269511EE14094
330
3858DFB861C84D95
100
AcDbEntity
  8
CYAN
100
AcDbPolyline
 90
        2
 70
     0
 43
0.0
 10
12.93116207023379
 20
7.63719639056111
 10
10.94684942839308
 20
7.637196390561112
  0
LWPOLYLINE
  5
218269511EE14098
330
3858DFB861C84D95
100
AcDbEntity
  8
CYAN
100
AcDbPolyline
 90
        4
 70
     0
 43
0.0
 10
12.90629227729027
 20
6.762196390561113
 10
10.94684942839308
 20
6.762196390561109
 10
10.94684942839308
 20
6.860196390561113
 10
12.91766132105915
 20
6.860196390561118
  0
LWPOLYLINE
  5
218269511EE140E4
330
3858DFB861C84D95
100
AcDbEntity
  8
THIN
100
AcDbPolyline
 90
        4
 70
     0
 43
0.0
 10
5.594482484282065
 20
23.40309120443066
 10
6.143553374907502
 20
23.33939313312721
 10
6.026767760914997
 20
23.43376499624162
 10
6.747515797061244
 20
23.34526081373537
  0
LWPOLYLINE
  5
218269511EE140EA
330
3858DFB861C84D95
100
AcDbEntity
  8
THIN
100
AcDbPolyline
 90
        4
 70
     0
 43
0.0
 10
5.594807581963604
 20
23.33401442590307
 10
6.315555618109859
 20
23.25039997723695
 10
6.198770004117354
 20
23.34477184035135
 10
6.747890387653943
 20
23.27734265816131
  0
LWPOLYLINE
  5
218269511EE140F0
330
3858DFB861C84D95
100
AcDbEntity
  8
CYAN
100
AcDbPolyline
 90
        3
 70
     0
 43
0.0
 10
6.64287467978441
 20
27.01678673264599
 10
6.544874679784411
 20
27.01678673264599
 10
6.544874679784411
 20
23.37006919103261
  0
LWPOLYLINE
  5
218269511EE140F5
330
3858DFB861C84D95
100
AcDbEntity
  8
CYAN
100
AcDbPolyline
 90
        2
 70
     0
 43
0.0
 10
6.64287467978441
 20
23.35803529090298
 10
6.64287467978441
 20
27.01678673264599
  0
LWPOLYLINE
  5
218269511EE140F9
330
3858DFB861C84D95
100
AcDbEntity
  8
CYAN
100
AcDbPolyline
 90
        4
 70
     0
 43
0.0
 10
5.76787467978441
 20
23.38290508384649
 10
5.76787467978441
 20
27.01678673264599
 10
5.865874679784416
 20
27.01678673264599
 10
5.865874679784416
 20
23.37153604007761
  0
LWPOLYLINE
  5
218269511EE140FF
330
3858DFB861C84D95
100
AcDbEntity
  8
CYAN
100
AcDbPolyline
 90
        4
 70
     0
 43
0.0
 10
6.64287467978441
 20
23.29023805143217
 10
6.64287467978441
 20
19.89012265278409
 10
6.544874679784411
 20
19.89012265278409
 10
6.54487467978441
 20
23.3022719515618
  0
LWPOLYLINE
  5
218269511EE14105
330
3858DFB861C84D95
100
AcDbEntity
  8
CYAN
100
AcDbPolyline
 90
        4
 70
     0
 43
0.0
 10
5.76787467978441
 20
23.31393679926963
 10
5.76787467978441
 20
19.89012265278409
 10
5.865874679784416
 20
19.89012265278409
 10
5.865874679784417
 20
23.30256775550075
  0
LWPOLYLINE
  5
218269511EE1410B
330
3858DFB861C84D95
100
AcDbEntity
  8
CYAN
100
AcDbPolyline
 90
        4
 70
     0
 43
0.0
 10
7.707874679784409
 20
23.31393679926964
 10
7.707874679784393
 20
19.89012265278409
 10
7.805874679784399
 20
19.89012265278409
 10
7.805874679784415
 20
23.30256775550076
  0
LWPOLYLINE
  5
218269511EE14111
330
3858DFB861C84D95
100
AcDbEntity
  8
CYAN
100
AcDbPolyline
 90
        4
 70
     0
 43
0.0
 10
8.582874679784399
 20
23.29023805143218
 10
8.582874679784399
 20
19.89012265278409
 10
8.4848746797844
 20
19.89012265278409
 10
8.4848746797844
 20
23.30227195156181
  0
LWPOLYLINE
  5
218269511EE14117
330
3858DFB861C84D95
100
AcDbEntity
  8
CYAN
100
AcDbPolyline
 90
        4
 70
     0
 43
0.0
 10
7.70787467978441
 20
23.38290508384649
 10
7.707874679784393
 20
27.01678673264599
 10
7.805874679784399
 20
27.01678673264599
 10
7.805874679784416
 20
23.37153604007761
  0
LWPOLYLINE
  5
218269511EE1411D
330
3858DFB861C84D95
100
AcDbEntity
  8
CYAN
100
AcDbPolyline
 90
        2
 70
     0
 43
0.0
 10
8.582874679784399
 20
23.35803529090299
 10
8.582874679784399
 20
27.01678673264599
  0
LWPOLYLINE
  5
218269511EE14121
330
3858DFB861C84D95
100
AcDbEntity
  8
CYAN
100
AcDbPolyline
 90
        3
 70
     0
 43
0.0
 10
8.582874679784399
 20
27.01678673264599
 10
8.4848746797844
 20
27.01678673264599
 10
8.4848746797844
 20
23.37006919103262
  0
LWPOLYLINE
  5
218269511EE14149
330
3858DFB861C84D95
100
AcDbEntity
  8
THIN
100
AcDbPolyline
 90
        4
 70
     0
 43
0.0
 10
7.534807581963595
 20
23.33401442590308
 10
8.255555618109841
 20
23.25039997723695
 10
8.138770004117336
 20
23.34477184035136
 10
8.687890387653933
 20
23.27734265816131
  0
LWPOLYLINE
  5
218269511EE1414F
330
3858DFB861C84D95
100
AcDbEntity
  8
THIN
100
AcDbPolyline
 90
        4
 70
     0
 43
0.0
 10
7.534482484282055
 20
23.40309120443067
 10
8.083553374907484
 20
23.33939313312722
 10
7.96676776091498
 20
23.43376499624163
 10
8.687515797061227
 20
23.34526081373538
  0
INSERT
  5
218269511EE14178
330
3858DFB861C84D95
100
AcDbEntity
  8
10
100
AcDbBlockReference
  2
ROLLER
 10
8.145869798876315
 20
18.91712265278408
 30
0.0
  0
INSERT
  5
218269511EE14179
330
3858DFB861C84D95
100
AcDbEntity
  8
10
100
AcDbBlockReference
  2
ROLLER
 10
6.205869798876304
 20
18.91712265278408
 30
0.0
  0
LINE
  5
218269511EE1417A
330
3858DFB861C84D95
100
AcDbEntity
  8
XTHIN
100
AcDbLine
 10
15.29047381358395
 20
8.17157607001072
 30
0.0
 11
15.10247381358395
 21
8.17157607001072
 31
0.0
  0
LINE
  5
218269511EE1417B
330
3858DFB861C84D95
100
AcDbEntity
  8
XTHIN
100
AcDbLine
 10
15.10247381358395
 20
8.196576070010719
 30
0.0
 11
15.10247381358395
 21
8.17157607001072
 31
0.0
  0
LINE
  5
218269511EE1417C
330
3858DFB861C84D95
100
AcDbEntity
  8
XTHIN
100
AcDbLine
 10
15.29047381358395
 20
8.196576070010719
 30
0.0
 11
15.29047381358395
 21
8.17157607001072
 31
0.0
  0
LINE
  5
218269511EE1417D
330
3858DFB861C84D95
100
AcDbEntity
  8
XTHIN
100
AcDbLine
 10
15.10247381358395
 20
8.196576070010719
 30
0.0
 11
15.29047381358395
 21
8.196576070010719
 31
0.0
  0
LINE
  5
218269511EE1417E
330
3858DFB861C84D95
100
AcDbEntity
  8
XTHIN
100
AcDbLine
 10
15.19647381358395
 20
8.17157607001072
 30
0.0
 11
15.19647381358395
 21
7.940729285204699
 31
0.0
  0
ARC
  5
218269511EE1417F
330
3858DFB861C84D95
100
AcDbEntity
  8
XTHIN
100
AcDbCircle
 10
15.45467686397111
 20
8.111055394760127
 30
0.0
 40
0.2159149051475067
100
AcDbArc
 50
163.721964920285
 51
225.0158690868921
  0
ARC
  5
218269511EE14180
330
3858DFB861C84D95
100
AcDbEntity
  8
XTHIN
100
AcDbCircle
 10
14.93827076319679
 20
8.111055394760127
 30
0.0
 40
0.2159149051475063
100
AcDbArc
 50
314.9841309131079
 51
16.27803507971499
  0
ARC
  5
218269511EE14181
330
3858DFB861C84D95
100
AcDbEntity
  8
XTHIN
100
AcDbCircle
 10
15.86508971185302
 20
8.102021010464289
 30
0.0
 40
0.6479747707421702
100
AcDbArc
 50
174.7195508955483
 51
193.4209529993067
  0
ARC
  5
218269511EE14182
330
3858DFB861C84D95
100
AcDbEntity
  8
XTHIN
100
AcDbCircle
 10
14.52785791531488
 20
8.102021010464289
 30
0.0
 40
0.64797477074217
100
AcDbArc
 50
346.5790470006933
 51
5.280449104451637
  0
INSERT
  5
218269511EE14197
330
3858DFB861C84D95
100
AcDbEntity
  8
10
100
AcDbBlockReference
  2
*X23
 10
-13.42364197809041
 20
12.17782466905614
 30
0.0
 41
2.0
 42
2.0
 43
2.0
1001
ACAD
1000
HATCH
1002
{
1070
    16
1000
ANSI31
1040
0.5
1040
0.0
1002
}
  0
INSERT
  5
218269511EE14198
330
3858DFB861C84D95
100
AcDbEntity
  8
10
100
AcDbBlockReference
  2
*X24
 10
-13.42364197809041
 20
8.096892440158676
 30
0.0
 41
2.0
 42
2.0
 43
2.0
1001
ACAD
1000
HATCH
1002
{
1070
    16
1000
ANSI31
1040
0.5
1040
0.0
1002
}
  0
INSERT
  5
218269511EE14199
330
3858DFB861C84D95
100
AcDbEntity
  8
10
100
AcDbBlockReference
  2
*X24
 10
-11.4836419780904
 20
8.096892440158683
 30
0.0
 41
2.0
 42
2.0
 43
2.0
1001
ACAD
1000
HATCH
1002
{
1070
    16
1000
ANSI31
1040
0.5
1040
0.0
1002
}
  0
INSERT
  5
218269511EE1419A
330
3858DFB861C84D95
100
AcDbEntity
  8
10
100
AcDbBlockReference
  2
*X23
 10
-11.4836419780904
 20
12.17782466905616
 30
0.0
 41
2.0
 42
2.0
 43
2.0
1001
ACAD
1000
HATCH
1002
{
1070
    16
1000
ANSI31
1040
0.5
1040
0.0
1002
}
  0
INSERT
  5
218269511EE1419B
330
3858DFB861C84D95
100
AcDbEntity
  8
10
100
AcDbBlockReference
  2
*X22
 10
7.966982775832818
 20
1.627541261393738
 30
0.0
 41
2.0
 42
2.0
 43
2.0
1001
ACAD
1000
HATCH
1002
{
1070
    16
1000
ANSI31
1040
0.5
1040
0.0
1002
}
  0
INSERT
  5
218269511EE1419C
330
3858DFB861C84D95
100
AcDbEntity
  8
10
100
AcDbBlockReference
  2
*X21
 10
6.940310615666767
 20
1.627541261393736
 30
0.0
 41
2.0
 42
2.0
 43
2.0
1001
ACAD
1000
HATCH
1002
{
1070
    16
1000
ANSI31
1040
0.5
1040
0.0
1002
}
  0
INSERT
  5
218269511EE1419D
330
3858DFB861C84D95
100
AcDbEntity
  8
10
100
AcDbBlockReference
  2
*X20
 10
6.940310615666767
 20
1.627541261393736
 30
0.0
 41
2.0
 42
2.0
 43
2.0
1001
ACAD
1000
HATCH
1002
{
1070
    16
1000
ANSI31
1040
0.5
1040
0.0
1002
}
  0
INSERT
  5
218269511EE1419E
330
3858DFB861C84D95
100
AcDbEntity
  8
10
100
AcDbBlockReference
  2
*X19
 10
5.958592310106126
 20
1.627541261393738
 30
0.0
 41
2.0
 42
2.0
 43
2.0
1001
ACAD
1000
HATCH
1002
{
1070
    16
1000
ANSI31
1040
0.5
1040
0.0
1002
}
  0
CIRCLE
  5
218269511EE1419F
330
3858DFB861C84D95
100
AcDbEntity
  8
10
100
AcDbCircle
 10
16.10703359048175
 20
8.314234202213617
 30
0.0
 40
0.076716909610143
  0
LINE
  5
218269511EE141A0
330
3858DFB861C84D95
100
AcDbEntity
  8
DIM
  6
DOT
100
AcDbLine
 10
16.10703359048175
 20
8.390951111823762
 30
0.0
 11
17.76331397722753
 21
8.39095111182376
 31
0.0
  0
CIRCLE
  5
218269511EE141A1
330
3858DFB861C84D95
100
AcDbEntity
  8
DIM
100
AcDbCircle
 10
19.54174459134707
 20
8.314234202213619
 30
0.0
 40
0.076716909610143
  0
POLYLINE
  5
218269511EE141A2
330
3858DFB861C84D95
100
AcDbEntity
  8
DIM
100
AcDb2dPolyline
 66
     1
 10
0.0
 20
0.0
 30
0.0
 70
     4
 75
     6
  0
VERTEX
  5
218269511EE141A3
330
218269511EE141A2
100
AcDbEntity
  8
DIM
100
AcDbVertex
100
AcDb2dVertex
 10
17.77547741437892
 20
8.465764039577662
 30
0.0
 70
    16
  0
VERTEX
  5
218269511EE141A4
330
218269511EE141A2
100
AcDbEntity
  8
DIM
100
AcDbVertex
100
AcDb2dVertex
 10
17.77547741437892
 20
8.465764039577662
 30
0.0
 70
     8
  0
VERTEX
  5
218269511EE141A5
330
218269511EE141A2
100
AcDbEntity
  8
DIM
100
AcDbVertex
100
AcDb2dVertex
 10
17.75708555076058
 20
8.448994735574002
 30
0.0
 70
     8
  0
VERTEX
  5
218269511EE141A6
330
218269511EE141A2
100
AcDbEntity
  8
DIM
100
AcDbVertex
100
AcDb2dVertex
 10
17.75193857756284
 20
8.429709892715871
 30
0.0
 70
     8
  0
VERTEX
  5
218269511EE141A7
330
218269511EE141A2
100
AcDbEntity
  8
DIM
100
AcDbVertex
100
AcDb2dVertex
 10
17.75591929797963
 20
8.408786225000385
 30
0.0
 70
     8
  0
VERTEX
  5
218269511EE141A8
330
218269511EE141A2
100
AcDbEntity
  8
DIM
100
AcDbVertex
100
AcDb2dVertex
 10
17.76491051520492
 20
8.387100446424662
 30
0.0
 70
     8
  0
VERTEX
  5
218269511EE141A9
330
218269511EE141A2
100
AcDbEntity
  8
DIM
100
AcDbVertex
100
AcDb2dVertex
 10
17.77479503243263
 20
8.365529270985819
 30
0.0
 70
     8
  0
VERTEX
  5
218269511EE141AA
330
218269511EE141A2
100
AcDbEntity
  8
DIM
100
AcDbVertex
100
AcDb2dVertex
 10
17.78145565285671
 20
8.344949412680966
 30
0.0
 70
     8
  0
VERTEX
  5
218269511EE141AB
330
218269511EE141A2
100
AcDbEntity
  8
DIM
100
AcDbVertex
100
AcDb2dVertex
 10
17.78077517967109
 20
8.326237585507223
 30
0.0
 70
     8
  0
VERTEX
  5
218269511EE141AC
330
218269511EE141A2
100
AcDbEntity
  8
DIM
100
AcDbVertex
100
AcDb2dVertex
 10
17.76863641606974
 20
8.310270503461707
 30
0.0
 70
     8
  0
VERTEX
  5
218269511EE141AD
330
218269511EE141A2
100
AcDbEntity
  8
DIM
100
AcDbVertex
100
AcDb2dVertex
 10
17.7051128603416
 20
8.425179248704631
 30
0.0
 70
    16
  0
VERTEX
  5
218269511EE141AE
330
218269511EE141A2
100
AcDbEntity
  8
DIM
100
AcDbVertex
100
AcDb2dVertex
 10
17.81994390338863
 20
8.348410427414679
 30
0.0
 70
    16
  0
VERTEX
  5
218269511EE141AF
330
218269511EE141A2
100
AcDbEntity
  8
DIM
100
AcDbVertex
100
AcDb2dVertex
 10
17.76863641606974
 20
8.310270503461707
 30
0.0
 70
    16
  0
SEQEND
  5
218269511EE141B0
330
218269511EE141A2
100
AcDbEntity
  8
DIM
  0
POLYLINE
  5
218269511EE141B1
330
3858DFB861C84D95
100
AcDbEntity
  8
DIM
100
AcDb2dPolyline
 66
     1
 10
0.0
 20
0.0
 30
0.0
 70
     4
 75
     6
  0
VERTEX
  5
218269511EE141B2
330
218269511EE141B1
100
AcDbEntity
  8
DIM
100
AcDbVertex
100
AcDb2dVertex
 10
17.84975111030721
 20
8.465764039577662
 30
0.0
 70
    16
  0
VERTEX
  5
218269511EE141B3
330
218269511EE141B1
100
AcDbEntity
  8
DIM
100
AcDbVertex
100
AcDb2dVertex
 10
17.84975111030721
 20
8.465764039577662
 30
0.0
 70
     8
  0
VERTEX
  5
218269511EE141B4
330
218269511EE141B1
100
AcDbEntity
  8
DIM
100
AcDbVertex
100
AcDb2dVertex
 10
17.83135924668887
 20
8.448994735574002
 30
0.0
 70
     8
  0
VERTEX
  5
218269511EE141B5
330
218269511EE141B1
100
AcDbEntity
  8
DIM
100
AcDbVertex
100
AcDb2dVertex
 10
17.82621227349112
 20
8.429709892715871
 30
0.0
 70
     8
  0
VERTEX
  5
218269511EE141B6
330
218269511EE141B1
100
AcDbEntity
  8
DIM
100
AcDbVertex
100
AcDb2dVertex
 10
17.83019299390793
 20
8.408786225000385
 30
0.0
 70
     8
  0
VERTEX
  5
218269511EE141B7
330
218269511EE141B1
100
AcDbEntity
  8
DIM
100
AcDbVertex
100
AcDb2dVertex
 10
17.83918421113321
 20
8.387100446424662
 30
0.0
 70
     8
  0
VERTEX
  5
218269511EE141B8
330
218269511EE141B1
100
AcDbEntity
  8
DIM
100
AcDbVertex
100
AcDb2dVertex
 10
17.84906872836092
 20
8.365529270985819
 30
0.0
 70
     8
  0
VERTEX
  5
218269511EE141B9
330
218269511EE141B1
100
AcDbEntity
  8
DIM
100
AcDbVertex
100
AcDb2dVertex
 10
17.855729348785
 20
8.344949412680966
 30
0.0
 70
     8
  0
VERTEX
  5
218269511EE141BA
330
218269511EE141B1
100
AcDbEntity
  8
DIM
100
AcDbVertex
100
AcDb2dVertex
 10
17.85504887559939
 20
8.326237585507223
 30
0.0
 70
     8
  0
VERTEX
  5
218269511EE141BB
330
218269511EE141B1
100
AcDbEntity
  8
DIM
100
AcDbVertex
100
AcDb2dVertex
 10
17.84291011199804
 20
8.310270503461707
 30
0.0
 70
     8
  0
VERTEX
  5
218269511EE141BC
330
218269511EE141B1
100
AcDbEntity
  8
DIM
100
AcDbVertex
100
AcDb2dVertex
 10
17.77938655626988
 20
8.425179248704631
 30
0.0
 70
    16
  0
VERTEX
  5
218269511EE141BD
330
218269511EE141B1
100
AcDbEntity
  8
DIM
100
AcDbVertex
100
AcDb2dVertex
 10
17.89421759931691
 20
8.348410427414679
 30
0.0
 70
    16
  0
VERTEX
  5
218269511EE141BE
330
218269511EE141B1
100
AcDbEntity
  8
DIM
100
AcDbVertex
100
AcDb2dVertex
 10
17.84291011199804
 20
8.310270503461707
 30
0.0
 70
    16
  0
SEQEND
  5
218269511EE141BF
330
218269511EE141B1
100
AcDbEntity
  8
DIM
  0
LINE
  5
218269511EE141C0
330
3858DFB861C84D95
100
AcDbEntity
  8
10
100
AcDbLine
 10
14.4467829717985
 20
6.449201271469216
 30
0.0
 11
14.01178297179849
 21
6.449201271469216
 31
0.0
  0
ARC
  5
218269511EE141C1
330
3858DFB861C84D95
100
AcDbEntity
  8
10
100
AcDbCircle
 10
14.01178297179849
 20
6.662393119685094
 30
0.0
 40
0.015
100
AcDbArc
 50
95.45609291119816
 51
180.0
  0
LINE
  5
218269511EE141C2
330
3858DFB861C84D95
100
AcDbEntity
  8
10
100
AcDbLine
 10
14.44762209541041
 20
6.709019791372656
 30
0.0
 11
14.01035672786068
 21
6.677325160008837
 31
0.0
  0
LINE
  5
218269511EE141C3
330
3858DFB861C84D95
100
AcDbEntity
  8
10
100
AcDbLine
 10
13.99678297179849
 20
6.662393119685094
 30
0.0
 11
13.99678297179849
 21
6.464201271469213
 31
0.0
  0
LINE
  5
218269511EE141C4
330
3858DFB861C84D95
100
AcDbEntity
  8
10
100
AcDbLine
 10
14.1967829717985
 20
6.449201271469216
 30
0.0
 11
14.1967829717985
 21
6.690838032320818
 31
0.0
  0
ARC
  5
218269511EE141C5
330
3858DFB861C84D95
100
AcDbEntity
  8
10
100
AcDbCircle
 10
14.01178297179849
 20
6.464201271469213
 30
0.0
 40
0.015
100
AcDbArc
 50
180.0
 51
270.0
  0
ARC
  5
218269511EE141C6
330
3858DFB861C84D95
100
AcDbEntity
  8
10
100
AcDbCircle
 10
13.76178297179849
 20
5.833506720160665
 30
0.0
 40
0.015
100
AcDbArc
 50
180.0
 51
260.5536714582223
  0
ARC
  5
218269511EE141C7
330
3858DFB861C84D95
100
AcDbEntity
  8
10
100
AcDbCircle
 10
13.76178297179849
 20
6.274895822777774
 30
0.0
 40
0.015
100
AcDbArc
 50
99.4463285417777
 51
180.0
  0
ARC
  5
218269511EE141C8
330
3858DFB861C84D95
100
AcDbEntity
  8
10
100
AcDbCircle
 10
14.01178297179849
 20
5.410818859864462
 30
0.0
 40
0.015
100
AcDbArc
 50
180.0
 51
264.5439070888019
  0
ARC
  5
218269511EE141C9
330
3858DFB861C84D95
100
AcDbEntity
  8
10
100
AcDbCircle
 10
14.0847829717985
 20
6.004201271469218
 30
0.0
 40
0.05
100
AcDbArc
 50
270.0
 51
0.0
  0
ARC
  5
218269511EE141CA
330
3858DFB861C84D95
100
AcDbEntity
  8
10
100
AcDbCircle
 10
14.0847829717985
 20
6.104201271469221
 30
0.0
 40
0.05
100
AcDbArc
 50
0.0
 51
90.00000000000003
  0
LINE
  5
218269511EE141CB
330
3858DFB861C84D95
100
AcDbEntity
  8
10
100
AcDbLine
 10
13.99678297179849
 20
6.154201271469221
 30
0.0
 11
13.99678297179849
 21
6.379201271469219
 31
0.0
  0
LINE
  5
218269511EE141CC
330
3858DFB861C84D95
100
AcDbEntity
  8
10
100
AcDbLine
 10
13.80685771610979
 20
6.154201271469218
 30
0.0
 11
14.0847829717985
 21
6.154201271469221
 31
0.0
  0
LINE
  5
218269511EE141CD
330
3858DFB861C84D95
100
AcDbEntity
  8
10
100
AcDbLine
 10
13.80685771610979
 20
5.954201271469221
 30
0.0
 11
14.0847829717985
 21
5.954201271469221
 31
0.0
  0
LINE
  5
218269511EE141CE
330
3858DFB861C84D95
100
AcDbEntity
  8
10
100
AcDbLine
 10
14.1347829717985
 20
6.104201271469221
 30
0.0
 11
14.1347829717985
 21
6.004201271469218
 31
0.0
  0
LINE
  5
218269511EE141CF
330
3858DFB861C84D95
100
AcDbEntity
  8
10
100
AcDbLine
 10
13.99678297179849
 20
5.77920127146922
 30
0.0
 11
13.75932111724653
 21
5.818710123519378
 31
0.0
  0
LINE
  5
218269511EE141D0
330
3858DFB861C84D95
100
AcDbEntity
  8
10
100
AcDbLine
 10
13.99678297179849
 20
6.329201271469222
 30
0.0
 11
13.75932111724653
 21
6.28969241941906
 31
0.0
  0
LINE
  5
218269511EE141D1
330
3858DFB861C84D95
100
AcDbEntity
  8
10
100
AcDbLine
 10
13.74678297179849
 20
6.274895822777774
 30
0.0
 11
13.74678297179849
 21
5.833506720160665
 31
0.0
  0
LINE
  5
218269511EE141D2
330
3858DFB861C84D95
100
AcDbEntity
  8
10
100
AcDbLine
 10
14.4467829717985
 20
5.354201271469221
 30
0.0
 11
14.01035672786068
 21
5.395886819540719
 31
0.0
  0
LINE
  5
218269511EE141D3
330
3858DFB861C84D95
100
AcDbEntity
  8
10
100
AcDbLine
 10
14.1967829717985
 20
6.379201271469219
 30
0.0
 11
14.1967829717985
 21
5.378080190674086
 31
0.0
  0
LINE
  5
218269511EE141D4
330
3858DFB861C84D95
100
AcDbEntity
  8
10
100
AcDbLine
 10
14.4467829717985
 20
6.379201271469219
 30
0.0
 11
13.99678297179849
 21
6.379201271469219
 31
0.0
  0
LINE
  5
218269511EE141D5
330
3858DFB861C84D95
100
AcDbEntity
  8
10
100
AcDbLine
 10
13.99678297179849
 20
5.410818859864462
 30
0.0
 11
13.99678297179849
 21
5.954201271469221
 31
0.0
  0
ARC
  5
218269511EE141D6
330
3858DFB861C84D95
100
AcDbEntity
  8
10
100
AcDbCircle
 10
10.75350067929865
 20
5.769904174301668
 30
0.0
 40
0.078
100
AcDbArc
 50
301.9246846711904
 51
304.0449648310643
  0
ARC
  5
218269511EE141D7
330
3858DFB861C84D95
100
AcDbEntity
  8
10
100
AcDbCircle
 10
10.67550067929865
 20
5.923201271469228
 30
0.0
 40
0.15
100
AcDbArc
 50
270.0000000000002
 51
270.0266298476542
  0
LINE
  5
218269511EE141D8
330
3858DFB861C84D95
100
AcDbEntity
  8
DIM
  6
DOT
100
AcDbLine
 10
17.83758767315583
 20
8.390951111823763
 30
0.0
 11
19.54174459134707
 21
8.390951111823763
 31
0.0
  0
LWPOLYLINE
  5
218269511EE141D9
330
3858DFB861C84D95
100
AcDbEntity
  8
10
100
AcDbPolyline
 90
        6
 70
     1
 43
0.0
 10
14.9737829717985
 20
6.699696390561114
 10
14.9737829717985
 20
7.699696390561114
 10
15.2087829717985
 20
7.699696390561114
 42
-0.4142135623730941
 10
15.2237829717985
 20
7.684696390561113
 10
15.2237829717985
 20
6.714696390561113
 42
-0.414213562373096
 10
15.2087829717985
 20
6.699696390561114
  0
INSERT
  5
218269511EE141E1
330
3858DFB861C84D95
100
AcDbEntity
  8
XTHIN
100
AcDbBlockReference
  2
FIN3
 10
10.12963419054832
 20
7.849201271469223
 30
0.0
 50
270.0
  0
INSERT
  5
218269511EE141E2
330
3858DFB861C84D95
100
AcDbEntity
  8
XTHIN
100
AcDbBlockReference
  2
FIN3
 10
10.12963419054832
 20
6.549201271469233
 30
0.0
 50
90.0
  0
INSERT
  5
218269511EE141E3
330
3858DFB861C84D95
100
AcDbEntity
  8
XTHIN
100
AcDbBlockReference
  2
FIN3
 10
20.26426729122501
 20
4.60821103328545
 30
0.0
 50
90.0
  0
INSERT
  5
218269511EE141E4
330
3858DFB861C84D95
100
AcDbEntity
  8
XTHIN
100
AcDbBlockReference
  2
FIN3
 10
20.26426729122501
 20
5.908211033285429
 30
0.0
 41
-1.0
 50
90.0
  0
LWPOLYLINE
  5
218269511EE141E5
330
3858DFB861C84D95
100
AcDbEntity
  8
10
100
AcDbPolyline
 90
        6
 70
     1
 43
0.0
 10
19.724267291225
 20
4.773706152377328
 42
-0.4142135623730951
 10
19.709267291225
 20
4.758706152377329
 10
19.474267291225
 20
4.758706152377329
 10
19.474267291225
 20
5.758706152377328
 10
19.709267291225
 20
5.758706152377328
 42
-0.4142135623730951
 10
19.724267291225
 20
5.743706152377328
  0
LWPOLYLINE
  5
218269511EE141ED
330
3858DFB861C84D95
100
AcDbEntity
  8
10
100
AcDbPolyline
 90
        6
 70
     1
 43
0.0
 10
10.91963419054832
 20
6.699696390561116
 10
10.91963419054832
 20
7.699696390561116
 10
10.68463419054831
 20
7.699696390561116
 42
0.4142135623730948
 10
10.66963419054832
 20
7.684696390561115
 10
10.66963419054831
 20
6.714696390561115
 42
0.4142135623730964
 10
10.68463419054831
 20
6.699696390561114
  0
LINE
  5
218269511EE141F5
330
3858DFB861C84D95
100
AcDbEntity
  8
XTHIN
100
AcDbLine
 10
14.70478297179851
 20
5.950011257430272
 30
0.0
 11
14.72657190748542
 21
6.081132812378036
 31
0.0
  0
LINE
  5
218269511EE141F6
330
3858DFB861C84D95
100
AcDbEntity
  8
XTHIN
100
AcDbLine
 10
14.7247829717985
 20
5.950011257430272
 30
0.0
 11
14.76819501621523
 21
6.078286076108152
 31
0.0
  0
LINE
  5
218269511EE141F7
330
3858DFB861C84D95
100
AcDbEntity
  8
XTHIN
100
AcDbLine
 10
14.74478297179851
 20
5.950011257430272
 30
0.0
 11
14.80948773307413
 21
6.073565594427367
 31
0.0
  0
LINE
  5
218269511EE141F8
330
3858DFB861C84D95
100
AcDbEntity
  8
XTHIN
100
AcDbLine
 10
14.6147829717985
 20
5.950011257430272
 30
0.0
 11
14.55007821052287
 21
6.073565594427367
 31
0.0
  0
LINE
  5
218269511EE141F9
330
3858DFB861C84D95
100
AcDbEntity
  8
XTHIN
100
AcDbLine
 10
14.6347829717985
 20
5.950011257430272
 30
0.0
 11
14.59137092738177
 21
6.078286076108152
 31
0.0
  0
LINE
  5
218269511EE141FA
330
3858DFB861C84D95
100
AcDbEntity
  8
XTHIN
100
AcDbLine
 10
14.6547829717985
 20
5.950011257430272
 30
0.0
 11
14.63299403611159
 21
6.081132812378036
 31
0.0
  0
LINE
  5
218269511EE141FB
330
3858DFB861C84D95
100
AcDbEntity
  8
XTHIN
100
AcDbLine
 10
14.6797829717985
 20
5.950011257430272
 30
0.0
 11
14.6797829717985
 21
6.073412033301997
 31
0.0
  0
LINE
  5
218269511EE141FC
330
3858DFB861C84D95
100
AcDbEntity
  8
XTHIN
100
AcDbLine
 10
14.5447829717985
 20
5.950011257430272
 30
0.0
 11
14.5447829717985
 21
5.920011257430273
 31
0.0
  0
LINE
  5
218269511EE141FD
330
3858DFB861C84D95
100
AcDbEntity
  8
XTHIN
100
AcDbLine
 10
14.81478297179851
 20
5.950011257430272
 30
0.0
 11
14.5447829717985
 21
5.950011257430272
 31
0.0
  0
LINE
  5
218269511EE141FE
330
3858DFB861C84D95
100
AcDbEntity
  8
XTHIN
100
AcDbLine
 10
14.81478297179851
 20
5.920011257430273
 30
0.0
 11
14.81478297179851
 21
5.950011257430272
 31
0.0
  0
LINE
  5
218269511EE141FF
330
3858DFB861C84D95
100
AcDbEntity
  8
XTHIN
100
AcDbLine
 10
14.5447829717985
 20
5.920011257430273
 30
0.0
 11
14.81478297179851
 21
5.920011257430273
 31
0.0
  0
LINE
  5
218269511EE14200
330
3858DFB861C84D95
100
AcDbEntity
  8
XTHIN
100
AcDbLine
 10
15.51938270785962
 20
6.167116172416105
 30
0.0
 11
15.24938270785962
 21
6.167116172416105
 31
0.0
  0
LINE
  5
218269511EE14201
330
3858DFB861C84D95
100
AcDbEntity
  8
XTHIN
100
AcDbLine
 10
15.24938270785962
 20
6.167116172416105
 30
0.0
 11
15.24938270785962
 21
6.137116172416106
 31
0.0
  0
LINE
  5
218269511EE14202
330
3858DFB861C84D95
100
AcDbEntity
  8
XTHIN
100
AcDbLine
 10
15.24938270785962
 20
6.137116172416106
 30
0.0
 11
15.51938270785962
 21
6.137116172416106
 31
0.0
  0
LINE
  5
218269511EE14203
330
3858DFB861C84D95
100
AcDbEntity
  8
XTHIN
100
AcDbLine
 10
15.51938270785962
 20
6.137116172416106
 30
0.0
 11
15.51938270785962
 21
6.167116172416105
 31
0.0
  0
LINE
  5
218269511EE14204
330
3858DFB861C84D95
100
AcDbEntity
  8
XTHIN
100
AcDbLine
 10
15.38438270785962
 20
6.137116172416106
 30
0.0
 11
15.38438270785962
 21
6.013715396544379
 31
0.0
  0
LINE
  5
218269511EE14205
330
3858DFB861C84D95
100
AcDbEntity
  8
XTHIN
100
AcDbLine
 10
15.40938270785962
 20
6.137116172416106
 30
0.0
 11
15.43117164354653
 21
6.00599461746834
 31
0.0
  0
LINE
  5
218269511EE14206
330
3858DFB861C84D95
100
AcDbEntity
  8
XTHIN
100
AcDbLine
 10
15.42938270785962
 20
6.137116172416106
 30
0.0
 11
15.47279475227635
 21
6.008841353738224
 31
0.0
  0
LINE
  5
218269511EE14207
330
3858DFB861C84D95
100
AcDbEntity
  8
XTHIN
100
AcDbLine
 10
15.44938270785962
 20
6.137116172416106
 30
0.0
 11
15.51408746913525
 21
6.013561835419009
 31
0.0
  0
LINE
  5
218269511EE14208
330
3858DFB861C84D95
100
AcDbEntity
  8
XTHIN
100
AcDbLine
 10
15.31938270785962
 20
6.137116172416106
 30
0.0
 11
15.25467794658399
 21
6.013561835419009
 31
0.0
  0
LINE
  5
218269511EE14209
330
3858DFB861C84D95
100
AcDbEntity
  8
XTHIN
100
AcDbLine
 10
15.33938270785962
 20
6.137116172416106
 30
0.0
 11
15.29597066344289
 21
6.008841353738224
 31
0.0
  0
LINE
  5
218269511EE1420A
330
3858DFB861C84D95
100
AcDbEntity
  8
XTHIN
100
AcDbLine
 10
15.35938270785961
 20
6.137116172416106
 30
0.0
 11
15.3375937721727
 21
6.00599461746834
 31
0.0
  0
INSERT
  5
218269511EE1420B
330
3858DFB861C84D95
100
AcDbEntity
  8
10
100
AcDbBlockReference
  2
B1690
 10
21.43532811238757
 20
4.439201271469213
 30
0.0
 50
90.0
  0
INSERT
  5
218269511EE1420C
330
3858DFB861C84D95
100
AcDbEntity
  8
10
100
AcDbBlockReference
  2
LEGS
 10
15.9467829717985
 20
5.758706152377328
 30
0.0
  0
LWPOLYLINE
  5
218269511EE1420D
330
3858DFB861C84D95
100
AcDbEntity
  8
10
100
AcDbPolyline
 90
       40
 70
     1
 43
0.0
 10
14.7922829717985
 20
5.974201271469214
 42
0.4142135623730951
 10
14.8072829717985
 20
5.959201271469215
 10
14.8197829717985
 20
5.959201271469215
 42
-0.4142135623731038
 10
14.8347829717985
 20
5.944201271469214
 10
14.8347829717985
 20
5.924201271469214
 42
-0.4142135623730951
 10
14.8197829717985
 20
5.909201271469214
 10
14.5397829717985
 20
5.909201271469218
 42
-0.4142135623730994
 10
14.5247829717985
 20
5.924201271469217
 10
14.5247829717985
 20
5.944201271469218
 42
-0.4142135623730951
 10
14.5397829717985
 20
5.959201271469218
 10
14.5522829717985
 20
5.959201271469218
 42
0.4142135623730951
 10
14.5672829717985
 20
5.974201271469218
 10
14.5672829717985
 20
5.994201271469218
 42
0.4142135623730951
 10
14.5522829717985
 20
6.009201271469219
 10
14.5397829717985
 20
6.009201271469219
 42
-0.4142135623730951
 10
14.5247829717985
 20
6.02420127146922
 10
14.5247829717985
 20
6.286201271469219
 42
-0.4142135623730951
 10
14.5397829717985
 20
6.30120127146922
 10
14.5877829717985
 20
6.30120127146922
 42
-0.4142135623730908
 10
14.6027829717985
 20
6.286201271469219
 10
14.6027829717985
 20
6.264136879270114
 42
0.5779751439883026
 10
14.62530730410916
 20
6.251160576896988
 10
14.79787621206653
 20
6.351224969096093
 42
0.7665828604669292
 10
14.79035187975586
 20
6.379201271469219
 10
14.4617829717985
 20
6.379201271469217
 42
0.4142135623730908
 10
14.4467829717985
 20
6.364201271469217
 10
14.4467829717985
 20
4.524201271469221
 42
0.4142135623730907
 10
14.4617829717985
 20
4.50920127146922
 10
15.9317829717985
 20
4.50920127146922
 42
0.4142135623731037
 10
15.9467829717985
 20
4.524201271469219
 10
15.9467829717985
 20
4.758706152377329
 10
15.1847829717985
 20
4.758706152377329
 42
-0.4142135623730951
 10
15.1697829717985
 20
4.773706152377328
 10
15.1697829717985
 20
5.743706152377328
 42
-0.4142135623730951
 10
15.1847829717985
 20
5.758706152377328
 10
15.9467829717985
 20
5.758706152377328
 10
15.9467829717985
 20
5.994201271469222
 42
0.4142135623731038
 10
15.9317829717985
 20
6.009201271469223
 10
14.8072829717985
 20
6.009201271469219
 42
0.4142135623731038
 10
14.7922829717985
 20
5.994201271469218
  0
LWPOLYLINE
  5
218269511EE14237
330
3858DFB861C84D95
100
AcDbEntity
  8
10
100
AcDbPolyline
 90
       28
 70
     1
 43
0.0
 10
14.6375329717985
 20
4.587201271469214
 42
0.4142135623731037
 10
14.6525329717985
 20
4.602201271469215
 10
14.65253297179851
 20
4.67220127146922
 42
-0.4142135623730863
 10
14.6675329717985
 20
4.687201271469219
 10
14.7155329717985
 20
4.687201271469221
 42
-0.4142135623731038
 10
14.7305329717985
 20
4.67220127146922
 10
14.7305329717985
 20
4.602201271469215
 42
0.4142135623730951
 10
14.7455329717985
 20
4.587201271469214
 10
14.8710329717985
 20
4.587201271469218
 42
0.4142135623730864
 10
14.88603297179851
 20
4.602201271469218
 10
14.88603297179851
 20
4.67220127146922
 42
-0.414213562373095
 10
14.90103297179851
 20
4.687201271469219
 10
14.9490329717985
 20
4.687201271469219
 42
-0.4142135623731038
 10
14.9640329717985
 20
4.67220127146922
 10
14.9640329717985
 20
4.602201271469218
 42
0.4142135623730951
 10
14.9790329717985
 20
4.587201271469218
 10
15.0767829717985
 20
4.587201271469219
 42
0.4142135623730863
 10
15.0917829717985
 20
4.602201271469218
 10
15.0917829717985
 20
5.916201271469219
 42
0.4142135623731038
 10
15.0767829717985
 20
5.93120127146922
 10
14.9287829717985
 20
5.93120127146922
 42
0.4142135623731038
 10
14.9137829717985
 20
5.916201271469219
 10
14.9137829717985
 20
5.846201271469215
 42
-0.4142135623730979
 10
14.8987829717985
 20
5.831201271469216
 10
14.5397829717985
 20
5.831201271469218
 42
0.4142135623730908
 10
14.5247829717985
 20
5.816201271469218
 10
14.5247829717985
 20
4.602201271469218
 42
0.4142135623730821
 10
14.5397829717985
 20
4.587201271469219
  0
LWPOLYLINE
  5
218269511EE14255
330
3858DFB861C84D95
100
AcDbEntity
  8
10
100
AcDbPolyline
 90
        8
 70
     1
 43
0.0
 10
15.8687829717985
 20
5.916201271469223
 10
15.8687829717985
 20
5.851706152377326
 42
-0.4142135623730896
 10
15.8537829717985
 20
5.836706152377328
 10
15.1847829717985
 20
5.836706152377328
 42
-0.4142135623730898
 10
15.1697829717985
 20
5.851706152377326
 10
15.16978297179849
 20
5.916201271469219
 42
-0.4142135623730984
 10
15.1847829717985
 20
5.93120127146922
 10
15.8537829717985
 20
5.931201271469223
 42
-0.4142135623731013
  0
LWPOLYLINE
  5
218269511EE1425F
330
3858DFB861C84D95
100
AcDbEntity
  8
10
100
AcDbPolyline
 90
        8
 70
     1
 43
0.0
 10
15.1697829717985
 20
4.602201271469218
 10
15.1697829717985
 20
4.665706152377325
 42
-0.4142135623730909
 10
15.1847829717985
 20
4.680706152377326
 10
15.8537829717985
 20
4.68070615237733
 42
-0.4142135623730966
 10
15.8687829717985
 20
4.665706152377329
 10
15.8687829717985
 20
4.602201271469222
 42
-0.4142135623730935
 10
15.8537829717985
 20
4.587201271469223
 10
15.1847829717985
 20
4.587201271469219
 42
-0.4142135623730998
  0
LWPOLYLINE
  5
218269511EE14269
330
3858DFB861C84D95
100
AcDbEntity
  8
10
  6
Continuous
100
AcDbPolyline
 90
        8
 70
     1
 43
0.0
 10
15.2237829717985
 20
7.856201271469218
 10
15.2237829717985
 20
7.792696390561112
 42
-0.4142135623730935
 10
15.2087829717985
 20
7.777696390561112
 10
14.5397829717985
 20
7.777696390561108
 42
-0.4142135623730966
 10
14.5247829717985
 20
7.792696390561109
 10
14.5247829717985
 20
7.856201271469214
 42
-0.4142135623730935
 10
14.5397829717985
 20
7.871201271469215
 10
15.2087829717985
 20
7.871201271469218
 42
-0.4142135623730964
  0
LWPOLYLINE
  5
218269511EE14273
330
3858DFB861C84D95
100
AcDbEntity
  8
10
  6
Continuous
100
AcDbPolyline
 90
        8
 70
     1
 43
0.0
 10
14.9147829717985
 20
6.649696390561108
 10
15.2087829717985
 20
6.649696390561108
 42
-0.4142135623730933
 10
15.2237829717985
 20
6.634696390561107
 10
15.2237829717985
 20
6.514201271469215
 42
-0.4142135623730956
 10
15.2087829717985
 20
6.499201271469218
 10
14.9147829717985
 20
6.499201271469215
 42
-0.4142135623731018
 10
14.8997829717985
 20
6.514201271469215
 10
14.8997829717985
 20
6.634696390561107
 42
-0.4142135623730912
  0
LWPOLYLINE
  5
218269511EE1427D
330
3858DFB861C84D95
100
AcDbEntity
  8
10
100
AcDbPolyline
 90
       36
 70
     1
 43
0.0
 10
15.4295329717985
 20
7.786201271469217
 10
15.4295329717985
 20
7.856201271469218
 42
0.4142135623730951
 10
15.4145329717985
 20
7.871201271469218
 10
15.3167829717985
 20
7.871201271469218
 42
0.4142135623730942
 10
15.3017829717985
 20
7.856201271469218
 10
15.3017829717985
 20
6.542201271469218
 42
0.4142135623730948
 10
15.3167829717985
 20
6.527201271469217
 10
15.4145329717985
 20
6.527201271469217
 42
0.4142135623730977
 10
15.4295329717985
 20
6.542201271469218
 10
15.4295329717985
 20
6.613191509653
 42
-0.4142135623730951
 10
15.4445329717985
 20
6.628191509653
 10
15.4925329717985
 20
6.628191509653
 42
-0.4142135623730951
 10
15.5075329717985
 20
6.613191509653
 10
15.5075329717985
 20
6.542201271469218
 42
0.4142135623730969
 10
15.5225329717985
 20
6.527201271469217
 10
15.5657829717985
 20
6.527201271469217
 42
0.414213562373093
 10
15.5807829717985
 20
6.542201271469218
 10
15.5807829717985
 20
6.612201271469218
 42
-0.4142135623730956
 10
15.5957829717985
 20
6.627201271469219
 10
15.8537829717985
 20
6.627201271469219
 42
0.4142135623730971
 10
15.8687829717985
 20
6.642201271469219
 10
15.86878297179849
 20
7.856201271469218
 42
0.4142135623730853
 10
15.85378297179849
 20
7.871201271469218
 10
15.75603297179849
 20
7.871201271469222
 42
0.4142135623731044
 10
15.74103297179849
 20
7.856201271469221
 10
15.74103297179849
 20
7.786201271469217
 42
-0.4142135623730951
 10
15.72603297179849
 20
7.771201271469217
 10
15.6780329717985
 20
7.771201271469217
 42
-0.4142135623730951
 10
15.6630329717985
 20
7.786201271469217
 10
15.6630329717985
 20
7.856201271469221
 42
0.4142135623731018
 10
15.6480329717985
 20
7.871201271469222
 10
15.5225329717985
 20
7.871201271469218
 42
0.4142135623730877
 10
15.5075329717985
 20
7.856201271469218
 10
15.5075329717985
 20
7.786201271469217
 42
-0.4142135623730951
 10
15.4925329717985
 20
7.771201271469217
 10
15.4445329717985
 20
7.771201271469217
 42
-0.4142135623730951
  0
LWPOLYLINE
  5
218269511EE142A3
330
3858DFB861C84D95
100
AcDbEntity
  8
10
  6
Continuous
100
AcDbPolyline
 90
        8
 70
     1
 43
0.0
 10
14.5247829717985
 20
6.514201271469215
 10
14.5247829717985
 20
6.634696390561111
 42
-0.4142135623730903
 10
14.5397829717985
 20
6.649696390561108
 10
14.8067829717985
 20
6.649696390561108
 42
-0.4142135623730964
 10
14.8217829717985
 20
6.634696390561107
 10
14.8217829717985
 20
6.514201271469215
 42
-0.4142135623730909
 10
14.8067829717985
 20
6.499201271469215
 10
14.5397829717985
 20
6.499201271469215
 42
-0.4142135623731017
  0
LWPOLYLINE
  5
218269511EE142AD
330
3858DFB861C84D95
100
AcDbEntity
  8
10
100
AcDbPolyline
 90
       16
 70
     1
 43
0.0
 10
19.025267291225
 20
4.607424236721034
 10
19.025267291225
 20
4.659492948941731
 42
-0.1989123673796599
 10
19.02966068950721
 20
4.670099550659529
 10
19.0358738929428
 20
4.676312754095127
 42
-0.1989123673796571
 10
19.0464804946606
 20
4.68070615237733
 10
19.70305408778941
 20
4.680706152377331
 42
-0.1989123673796587
 10
19.71366068950721
 20
4.676312754095129
 10
19.71987389294281
 20
4.670099550659533
 42
-0.1989123673796527
 10
19.724267291225
 20
4.659492948941735
 10
19.724267291225
 20
4.607424236721036
 42
-0.198912367379658
 10
19.71987389294281
 20
4.596817635003238
 10
19.71366068950721
 20
4.590604431567641
 42
-0.1989123673796573
 10
19.70305408778941
 20
4.586211033285439
 10
19.0464804946606
 20
4.586211033285437
 42
-0.1989123673796589
 10
19.0358738929428
 20
4.59060443156764
 10
19.02966068950721
 20
4.596817635003236
 42
-0.198912367379656
  0
LWPOLYLINE
  5
218269511EE142BF
330
3858DFB861C84D95
100
AcDbEntity
  8
10
100
AcDbPolyline
 90
       32
 70
     1
 43
0.0
 10
19.917267291225
 20
4.686211033285441
 10
19.965267291225
 20
4.686211033285439
 42
-0.4142135623730951
 10
19.980267291225
 20
4.67121103328544
 10
19.980267291225
 20
4.60121103328544
 42
0.4142135623731054
 10
19.995267291225
 20
4.586211033285439
 10
20.06626729122502
 20
4.586211033285441
 42
0.4142135623730844
 10
20.081267291225
 20
4.601211033285442
 10
20.081267291225
 20
4.671211033285444
 42
-0.4142135623730951
 10
20.096267291225
 20
4.686211033285444
 10
20.35426729122502
 20
4.686211033285444
 42
0.4142135623730951
 10
20.36926729122502
 20
4.701211033285443
 10
20.36926729122502
 20
5.815211033285437
 42
0.4142135623730969
 10
20.35426729122502
 20
5.830211033285435
 10
20.096267291225
 20
5.830211033285434
 42
-0.4142135623730969
 10
20.081267291225
 20
5.845211033285434
 10
20.081267291225
 20
5.915211033285438
 42
0.4142135623730898
 10
20.06626729122502
 20
5.930211033285437
 10
19.995267291225
 20
5.930211033285439
 42
0.4142135623731011
 10
19.980267291225
 20
5.915211033285438
 10
19.980267291225
 20
5.845211033285438
 42
-0.4142135623730951
 10
19.965267291225
 20
5.830211033285437
 10
19.917267291225
 20
5.830211033285437
 42
-0.4142135623730951
 10
19.902267291225
 20
5.845211033285438
 10
19.902267291225
 20
5.91521103328544
 42
0.4142135623730951
 10
19.88726729122501
 20
5.930211033285439
 10
19.81726729122501
 20
5.930211033285439
 42
0.4142135623730951
 10
19.80226729122501
 20
5.915211033285438
 10
19.80226729122501
 20
4.601211033285438
 42
0.4142135623730951
 10
19.81726729122501
 20
4.586211033285439
 10
19.88726729122501
 20
4.586211033285437
 42
0.4142135623730951
 10
19.902267291225
 20
4.601211033285438
 10
19.902267291225
 20
4.67121103328544
 42
-0.4142135623730971
  0
LWPOLYLINE
  5
218269511EE142E1
330
3858DFB861C84D95
100
AcDbEntity
  8
10
100
AcDbPolyline
 90
       16
 70
     1
 43
0.0
 10
19.724267291225
 20
5.908997829849844
 10
19.724267291225
 20
5.857919355812925
 42
-0.1989123673796618
 10
19.7198738929428
 20
5.847312754095127
 10
19.71366068950721
 20
5.841099550659531
 42
-0.1989123673796518
 10
19.70305408778941
 20
5.83670615237733
 10
19.0464804946606
 20
5.836706152377328
 42
-0.1989123673796549
 10
19.0358738929428
 20
5.841099550659529
 10
19.02966068950721
 20
5.847312754095127
 42
-0.1989123673796616
 10
19.025267291225
 20
5.857919355812925
 10
19.025267291225
 20
5.908997829849842
 42
-0.1989123673796637
 10
19.02966068950721
 20
5.91960443156764
 10
19.0358738929428
 20
5.925817635003236
 42
-0.1989123673796518
 10
19.0464804946606
 20
5.930211033285439
 10
19.70305408778941
 20
5.930211033285439
 42
-0.1989123673796545
 10
19.71366068950721
 20
5.925817635003238
 10
19.7198738929428
 20
5.919604431567642
 42
-0.198912367379658
  0
LWPOLYLINE
  5
218269511EE142F3
330
3858DFB861C84D95
100
AcDbEntity
  8
10
100
AcDbPolyline
 90
       55
 70
     0
 43
0.0
 10
19.47241686116956
 20
3.98504459810005
 42
0.294136231145358
 10
19.61040449264716
 20
3.766363913029638
 42
1.722818878047927
 10
19.60118874531844
 20
3.90151331602503
 42
-0.1722352504789716
 10
19.57240080247467
 20
3.982211063087761
 10
19.57240080247467
 20
4.446211033285439
 42
-0.4142135623730909
 10
19.63440080247467
 20
4.508211033285438
 10
20.18676729122501
 20
4.508211033285442
 42
0.4142135623730951
 10
20.20176729122501
 20
4.523211033285442
 10
20.20176729122501
 20
4.543211033285444
 42
0.4142135623730777
 10
20.18676729122501
 20
4.558211033285442
 10
20.17426729122501
 20
4.558211033285442
 42
-0.4142135623730863
 10
20.15926729122501
 20
4.573211033285443
 10
20.15926729122501
 20
4.593211033285444
 42
-0.4142135623730863
 10
20.17426729122501
 20
4.608211033285445
 10
20.35426729122502
 20
4.608211033285443
 42
-0.4142135623730864
 10
20.36926729122502
 20
4.593211033285444
 10
20.36926729122502
 20
4.573211033285443
 42
-0.4142135623730951
 10
20.35426729122502
 20
4.558211033285442
 10
20.34176729122501
 20
4.558211033285444
 42
0.4142135623731038
 10
20.32676729122501
 20
4.543211033285444
 10
20.32676729122501
 20
4.52321103328544
 42
0.4142135623730864
 10
20.34176729122501
 20
4.508211033285442
 10
20.432267291225
 20
4.50821103328544
 42
0.4142135623730951
 10
20.447267291225
 20
4.52321103328544
 10
20.447267291225
 20
5.993211033285438
 42
0.4142135623730951
 10
20.432267291225
 20
6.008211033285438
 10
20.34176729122501
 20
6.008211033285436
 42
0.4142135623730951
 10
20.32676729122501
 20
5.993211033285436
 10
20.32676729122501
 20
5.973211033285434
 42
0.4142135623730951
 10
20.34176729122501
 20
5.958211033285434
 10
20.35426729122502
 20
5.958211033285436
 42
-0.4142135623730951
 10
20.36926729122502
 20
5.943211033285435
 10
20.36926729122502
 20
5.923211033285434
 42
-0.4142135623731122
 10
20.35426729122502
 20
5.908211033285435
 10
20.17426729122501
 20
5.908211033285433
 42
-0.4142135623731038
 10
20.15926729122501
 20
5.923211033285434
 10
20.15926729122501
 20
5.943211033285435
 42
-0.4142135623731125
 10
20.17426729122501
 20
5.958211033285434
 10
20.18676729122501
 20
5.958211033285434
 42
0.4142135623730951
 10
20.20176729122501
 20
5.973211033285434
 10
20.20176729122501
 20
5.993211033285439
 42
0.4142135623731124
 10
20.18676729122501
 20
6.008211033285438
 10
18.962267291225
 20
6.008211033285438
 42
0.4142135623730951
 10
18.947267291225
 20
5.993211033285438
 10
18.947267291225
 20
5.758706152377329
 10
19.709267291225
 20
5.758706152377329
 42
-0.4142135623731124
 10
19.724267291225
 20
5.74370615237733
 10
19.724267291225
 20
4.77370615237733
 42
-0.4142135623730864
 10
19.709267291225
 20
4.758706152377331
 10
18.94726729122502
 20
4.758706152377331
 10
18.947267291225
 20
4.523211033285437
 42
0.4142135623730863
 10
18.962267291225
 20
4.508211033285436
 10
19.41040080247468
 20
4.508211033285438
 42
-0.4142135623731014
 10
19.47240080247468
 20
4.446211033285439
 10
19.47240080247468
 20
3.984143561199935
  0
INSERT
  5
218269511EE1432C
330
3858DFB861C84D95
100
AcDbEntity
  8
10
100
AcDbBlockReference
  2
LEGS
 10
18.94326729122501
 20
4.758706152377331
 30
0.0
 50
180.0
  0
LWPOLYLINE
  5
218269511EE1432D
330
3858DFB861C84D95
100
AcDbEntity
  8
10
  6
Continuous
100
AcDbPolyline
 90
       56
 70
     1
 43
0.0
 10
15.6862829717985
 20
6.499201271469218
 10
15.67378297179851
 20
6.499201271469218
 42
-0.4142135623731035
 10
15.65878297179851
 20
6.514201271469219
 10
15.65878297179851
 20
6.534201271469219
 42
-0.4142135623731038
 10
15.67378297179851
 20
6.549201271469219
 10
15.85378297179851
 20
6.549201271469217
 42
-0.4142135623730864
 10
15.8687829717985
 20
6.534201271469219
 10
15.8687829717985
 20
6.514201271469219
 42
-0.4142135623730864
 10
15.85378297179851
 20
6.499201271469218
 10
15.8412829717985
 20
6.499201271469218
 42
0.4142135623731038
 10
15.8262829717985
 20
6.484201271469218
 10
15.8262829717985
 20
6.464201271469218
 42
0.4142135623731035
 10
15.8412829717985
 20
6.449201271469218
 10
15.8537829717985
 20
6.449201271469218
 42
-0.4142135623731039
 10
15.8687829717985
 20
6.434201271469217
 10
15.8687829717985
 20
6.206701271469218
 42
-0.4142135623730925
 10
15.8192829717985
 20
6.15720127146922
 10
15.6967829717985
 20
6.15720127146922
 10
15.6967829717985
 20
6.129201271469217
 42
0.4142135623730951
 10
15.7467829717985
 20
6.079201271469217
 10
15.9317829717985
 20
6.079201271469217
 42
0.4142135623730864
 10
15.9467829717985
 20
6.094201271469217
 10
15.9467829717985
 20
7.934201271469217
 42
0.4142135623730864
 10
15.9317829717985
 20
7.949201271469218
 10
14.4617829717985
 20
7.949201271469218
 42
0.4142135623730863
 10
14.4467829717985
 20
7.934201271469217
 10
14.4467829717985
 20
7.699696390561109
 10
14.5167829717985
 20
7.699696390561105
 10
14.7667829717985
 20
7.699696390561109
 10
14.8367829717985
 20
7.699696390561109
 10
15.2087829717985
 20
7.699696390561109
 42
-0.4142135623730864
 10
15.2237829717985
 20
7.684696390561108
 10
15.2237829717985
 20
6.714696390561109
 42
-0.4142135623731039
 10
15.2087829717985
 20
6.699696390561109
 10
14.8367829717985
 20
6.699696390561109
 10
14.7667829717985
 20
6.699696390561109
 10
14.5167829717985
 20
6.699696390561109
 10
14.4467829717985
 20
6.699696390561109
 10
14.4467829717985
 20
6.464201271469215
 42
0.4142135623731037
 10
14.4617829717985
 20
6.449201271469214
 10
14.7727829717985
 20
6.449201271469214
 42
-0.4142135623730924
 10
14.8227829717985
 20
6.399201271469217
 10
14.82278297179851
 20
6.330983702495301
 42
-0.267949192431129
 10
14.79778297179851
 20
6.287682432306078
 10
14.59828554918658
 20
6.172502541658441
 42
0.7673269879789566
 10
14.62328554918657
 20
6.07920127146922
 10
15.0227829717985
 20
6.079201271469218
 42
0.4142135623730756
 10
15.0727829717985
 20
6.129201271469216
 10
15.0727829717985
 20
6.157201271469216
 10
14.95028297179851
 20
6.15720127146922
 42
-0.4142135623730912
 10
14.9007829717985
 20
6.206701271469218
 10
14.9007829717985
 20
6.399201271469213
 42
-0.4142135623730912
 10
14.9507829717985
 20
6.449201271469214
 10
15.6862829717985
 20
6.449201271469218
 42
0.4142135623730864
 10
15.7012829717985
 20
6.464201271469218
 10
15.7012829717985
 20
6.484201271469218
 42
0.4142135623731039
  0
INSERT
  5
218269511EE14367
330
3858DFB861C84D95
100
AcDbEntity
  8
10
100
AcDbBlockReference
  2
LEGS
 10
14.4467829717985
 20
6.699696390561109
 30
0.0
 50
180.0
  0
INSERT
  5
218269511EE14368
330
3858DFB861C84D95
100
AcDbEntity
  8
10
100
AcDbBlockReference
  2
B1797A
 10
15.38438270785962
 20
6.181167303446035
 30
0.0
  0
INSERT
  5
218269511EE14369
330
3858DFB861C84D95
100
AcDbEntity
  8
10
100
AcDbBlockReference
  2
B1690
 10
8.966237536722822
 20
4.439201271469213
 30
0.0
 41
-1.0
 50
270.0
  0
INSERT
  5
218269511EE1436A
330
3858DFB861C84D95
100
AcDbEntity
  8
10
100
AcDbBlockReference
  2
LEGS
 10
11.45063419054831
 20
6.699696390561116
 30
0.0
 41
-1.0
 50
180.0
  0
LWPOLYLINE
  5
218269511EE1436B
330
3858DFB861C84D95
100
AcDbEntity
  8
10
100
AcDbPolyline
 90
       16
 70
     1
 43
0.0
 10
11.37063419054832
 20
6.548414474904819
 10
11.37063419054832
 20
6.600483187125518
 42
0.1989123673796599
 10
11.36624079226612
 20
6.611089788843314
 10
11.36002758883052
 20
6.617302992278914
 42
0.1989123673796571
 10
11.34942098711273
 20
6.621696390561115
 10
10.69284739398391
 20
6.621696390561116
 42
0.1989123673796587
 10
10.68224079226612
 20
6.617302992278914
 10
10.67602758883052
 20
6.611089788843318
 42
0.1989123673796527
 10
10.67163419054832
 20
6.600483187125521
 10
10.67163419054832
 20
6.548414474904821
 42
0.198912367379658
 10
10.67602758883052
 20
6.537807873187023
 10
10.68224079226612
 20
6.531594669751426
 42
0.1989123673796573
 10
10.69284739398391
 20
6.527201271469226
 10
11.34942098711273
 20
6.527201271469222
 42
0.1989123673796589
 10
11.36002758883052
 20
6.531594669751425
 10
11.36624079226612
 20
6.537807873187023
 42
0.198912367379656
  0
LWPOLYLINE
  5
218269511EE1437D
330
3858DFB861C84D95
100
AcDbEntity
  8
10
100
AcDbPolyline
 90
       16
 70
     1
 43
0.0
 10
10.66963419054832
 20
7.84998806803363
 10
10.66963419054832
 20
7.79890959399671
 42
0.1989123673796618
 10
10.67402758883052
 20
7.788302992278913
 10
10.68024079226612
 20
7.782089788843317
 42
0.1989123673796518
 10
10.69084739398391
 20
7.777696390561117
 10
11.34742098711273
 20
7.777696390561113
 42
0.1989123673796549
 10
11.35802758883052
 20
7.782089788843314
 10
11.36424079226611
 20
7.788302992278913
 42
0.1989123673796616
 10
11.36863419054832
 20
7.79890959399671
 10
11.36863419054832
 20
7.849988068033627
 42
0.1989123673796637
 10
11.36424079226612
 20
7.860594669751427
 10
11.35802758883052
 20
7.866807873187023
 42
0.1989123673796518
 10
11.34742098711273
 20
7.871201271469224
 10
10.69084739398391
 20
7.871201271469224
 42
0.1989123673796545
 10
10.68024079226612
 20
7.866807873187023
 10
10.67402758883052
 20
7.860594669751427
 42
0.198912367379658
  0
LWPOLYLINE
  5
218269511EE1438F
330
3858DFB861C84D95
100
AcDbEntity
  8
10
100
AcDbPolyline
 90
       32
 70
     1
 43
0.0
 10
10.47663419054832
 20
6.627201271469226
 10
10.42863419054832
 20
6.627201271469224
 42
0.4142135623730951
 10
10.41363419054832
 20
6.612201271469225
 10
10.41363419054832
 20
6.542201271469225
 42
-0.4142135623731054
 10
10.39863419054832
 20
6.527201271469226
 10
10.32763419054831
 20
6.527201271469226
 42
-0.4142135623730844
 10
10.31263419054832
 20
6.542201271469227
 10
10.31263419054832
 20
6.61220127146923
 42
0.4142135623730951
 10
10.29763419054832
 20
6.627201271469229
 10
10.03963419054832
 20
6.627201271469229
 42
-0.4142135623730951
 10
10.02463419054832
 20
6.642201271469228
 10
10.02463419054832
 20
7.756201271469222
 42
-0.4142135623730969
 10
10.03963419054832
 20
7.771201271469222
 10
10.29763419054832
 20
7.771201271469219
 42
0.4142135623730969
 10
10.31263419054832
 20
7.786201271469219
 10
10.31263419054832
 20
7.856201271469223
 42
-0.4142135623730898
 10
10.32763419054831
 20
7.871201271469224
 10
10.39863419054832
 20
7.871201271469224
 42
-0.4142135623731011
 10
10.41363419054832
 20
7.856201271469223
 10
10.41363419054832
 20
7.786201271469223
 42
0.4142135623730951
 10
10.42863419054832
 20
7.771201271469222
 10
10.47663419054832
 20
7.771201271469222
 42
0.4142135623730951
 10
10.49163419054832
 20
7.786201271469223
 10
10.49163419054832
 20
7.856201271469227
 42
-0.4142135623730951
 10
10.50663419054832
 20
7.871201271469224
 10
10.57663419054832
 20
7.871201271469224
 42
-0.4142135623730951
 10
10.59163419054832
 20
7.856201271469223
 10
10.59163419054832
 20
6.542201271469223
 42
-0.4142135623730951
 10
10.57663419054832
 20
6.527201271469224
 10
10.50663419054832
 20
6.527201271469222
 42
-0.4142135623730951
 10
10.49163419054832
 20
6.542201271469223
 10
10.49163419054832
 20
6.612201271469227
 42
0.4142135623730971
  0
LWPOLYLINE
  5
218269511EE143B1
330
3858DFB861C84D95
100
AcDbEntity
  8
10
100
AcDbPolyline
 90
       55
 70
     0
 43
0.0
 10
10.92148462060377
 20
5.926034836283834
 42
-0.294136231145358
 10
10.78349698912616
 20
5.707354151213424
 42
-1.722818878047927
 10
10.79271273645489
 20
5.842503554208816
 42
0.1722352504789716
 10
10.82150067929865
 20
5.923201301271545
 10
10.82150067929865
 20
6.387201271469225
 42
0.4142135623730909
 10
10.75950067929865
 20
6.449201271469223
 10
10.20713419054831
 20
6.449201271469227
 42
-0.4142135623730951
 10
10.19213419054831
 20
6.464201271469227
 10
10.19213419054831
 20
6.48420127146923
 42
-0.4142135623730777
 10
10.20713419054831
 20
6.499201271469227
 10
10.21963419054832
 20
6.499201271469227
 42
0.4142135623730863
 10
10.23463419054832
 20
6.514201271469228
 10
10.23463419054832
 20
6.534201271469231
 42
0.4142135623730863
 10
10.21963419054832
 20
6.54920127146923
 10
10.03963419054832
 20
6.549201271469228
 42
0.4142135623730864
 10
10.02463419054832
 20
6.534201271469229
 10
10.02463419054832
 20
6.514201271469228
 42
0.4142135623730951
 10
10.03963419054832
 20
6.499201271469227
 10
10.05213419054832
 20
6.499201271469229
 42
-0.4142135623731038
 10
10.06713419054831
 20
6.484201271469228
 10
10.06713419054831
 20
6.464201271469227
 42
-0.4142135623730864
 10
10.05213419054832
 20
6.449201271469227
 10
9.961634190548323
 20
6.449201271469227
 42
-0.4142135623730951
 10
9.946634190548323
 20
6.464201271469227
 10
9.946634190548323
 20
7.934201271469222
 42
-0.4142135623730951
 10
9.961634190548323
 20
7.949201271469223
 10
10.05213419054832
 20
7.949201271469223
 42
-0.4142135623730951
 10
10.06713419054831
 20
7.934201271469222
 10
10.06713419054831
 20
7.914201271469219
 42
-0.4142135623730951
 10
10.05213419054832
 20
7.899201271469219
 10
10.03963419054832
 20
7.899201271469222
 42
0.4142135623730951
 10
10.02463419054832
 20
7.884201271469222
 10
10.02463419054832
 20
7.864201271469219
 42
0.4142135623731122
 10
10.03963419054832
 20
7.849201271469222
 10
10.21963419054832
 20
7.849201271469218
 42
0.4142135623731038
 10
10.23463419054832
 20
7.864201271469219
 10
10.23463419054832
 20
7.884201271469222
 42
0.4142135623731125
 10
10.21963419054832
 20
7.899201271469219
 10
10.20713419054831
 20
7.899201271469219
 42
-0.4142135623730951
 10
10.19213419054832
 20
7.914201271469219
 10
10.19213419054831
 20
7.934201271469226
 42
-0.4142135623731124
 10
10.20713419054831
 20
7.949201271469223
 10
11.43163419054832
 20
7.949201271469223
 42
-0.4142135623730951
 10
11.44663419054832
 20
7.934201271469222
 10
11.44663419054832
 20
7.699696390561114
 10
10.68463419054832
 20
7.699696390561114
 42
0.4142135623731124
 10
10.66963419054832
 20
7.684696390561117
 10
10.66963419054832
 20
6.714696390561115
 42
0.4142135623730864
 10
10.68463419054832
 20
6.699696390561116
 10
11.44663419054831
 20
6.699696390561116
 10
11.44663419054832
 20
6.464201271469222
 42
-0.4142135623730863
 10
11.43163419054832
 20
6.449201271469221
 10
10.98350067929865
 20
6.449201271469223
 42
0.4142135623731014
 10
10.92150067929864
 20
6.387201271469225
 10
10.92150067929865
 20
5.92513379938372
  0
LWPOLYLINE
  5
218269511EE143EA
330
3858DFB861C84D95
100
AcDbEntity
  8
10
100
AcDbPolyline
 90
        6
 70
     1
 43
0.0
 10
15.16978297179849
 20
4.773706152377326
 42
0.4142135623730951
 10
15.1847829717985
 20
4.758706152377327
 10
15.4197829717985
 20
4.758706152377327
 10
15.4197829717985
 20
5.758706152377326
 10
15.1847829717985
 20
5.758706152377326
 42
0.4142135623730951
 10
15.16978297179849
 20
5.743706152377327
  0
INSERT
  5
218269511EE143F2
330
3858DFB861C84D95
100
AcDbEntity
  8
10
100
AcDbBlockReference
  2
B2233
 10
15.4175586894632
 20
8.309576070010718
 30
0.0
  0
INSERT
  5
218269511EE143F3
330
3858DFB861C84D95
100
AcDbEntity
  8
10
100
AcDbBlockReference
  2
B2233
 10
20.23073084962925
 20
8.30957607001072
 30
0.0
 41
-1.0
  0
INSERT
  5
218269511EE143F4
330
3858DFB861C84D95
100
AcDbEntity
  8
10
100
AcDbBlockReference
  2
B1247
 10
15.19647381358396
 20
8.301576070010719
 30
0.0
  0
INSERT
  5
218269511EE143F5
330
3858DFB861C84D95
100
AcDbEntity
  8
10
100
AcDbBlockReference
  2
B1947
 10
14.55751991564989
 20
5.258962475570435
 30
0.0
 50
270.0
  0
INSERT
  5
218269511EE143F6
330
3858DFB861C84D95
100
AcDbEntity
  8
10
100
AcDbBlockReference
  2
B1947
 10
15.83604602794711
 20
7.199440067368001
 30
0.0
 50
90.0
  0
CIRCLE
  5
218269511EE143F7
330
3858DFB861C84D95
100
AcDbEntity
  8
DIM
100
AcDbCircle
 10
5.081962647998563
 20
19.15660304866148
 30
0.0
 40
0.0796487660283667
  0
CIRCLE
  5
218269511EE143F8
330
3858DFB861C84D95
100
AcDbEntity
  8
DIM
100
AcDbCircle
 10
5.081962647998563
 20
27.80522684413738
 30
0.0
 40
0.0796487660283667
  0
LINE
  5
218269511EE143F9
330
3858DFB861C84D95
100
AcDbEntity
  8
10
  6
DOT
100
AcDbLine
 10
5.002313881970199
 20
19.15660304866148
 30
0.0
 11
5.002313881970186
 21
23.1869027198356
 31
0.0
  0
POLYLINE
  5
218269511EE143FA
330
3858DFB861C84D95
100
AcDbEntity
  8
DIM
100
AcDb2dPolyline
 66
     1
 10
0.0
 20
0.0
 30
0.0
 70
     4
 75
     6
  0
VERTEX
  5
218269511EE143FB
330
218269511EE143FA
100
AcDbEntity
  8
DIM
100
AcDbVertex
100
AcDb2dVertex
 10
5.081779809603991
 20
23.19434425286466
 30
0.0
 70
    16
  0
VERTEX
  5
218269511EE143FC
330
218269511EE143FA
100
AcDbEntity
  8
DIM
100
AcDbVertex
100
AcDb2dVertex
 10
5.081779809603991
 20
23.19434425286466
 30
0.0
 70
     8
  0
VERTEX
  5
218269511EE143FD
330
218269511EE143FA
100
AcDbEntity
  8
DIM
100
AcDbVertex
100
AcDb2dVertex
 10
5.067070496985711
 20
23.17964488679909
 30
0.0
 70
     8
  0
VERTEX
  5
218269511EE143FE
330
218269511EE143FA
100
AcDbEntity
  8
DIM
100
AcDbVertex
100
AcDb2dVertex
 10
5.049920137551926
 20
23.17514975537662
 30
0.0
 70
     8
  0
VERTEX
  5
218269511EE143FF
330
218269511EE143FA
100
AcDbEntity
  8
DIM
100
AcDbVertex
100
AcDb2dVertex
 10
5.031188254829236
 20
23.17759487781916
 30
0.0
 70
     8
  0
VERTEX
  5
218269511EE14400
330
218269511EE143FA
100
AcDbEntity
  8
DIM
100
AcDbVertex
100
AcDb2dVertex
 10
5.011734372344212
 20
23.18371627334861
 30
0.0
 70
     8
  0
VERTEX
  5
218269511EE14401
330
218269511EE143FA
100
AcDbEntity
  8
DIM
100
AcDbVertex
100
AcDb2dVertex
 10
4.992418013623439
 20
23.19024996118688
 30
0.0
 70
     8
  0
VERTEX
  5
218269511EE14402
330
218269511EE143FA
100
AcDbEntity
  8
DIM
100
AcDbVertex
100
AcDb2dVertex
 10
4.974098702193505
 20
23.19393196055585
 30
0.0
 70
     8
  0
VERTEX
  5
218269511EE14403
330
218269511EE143FA
100
AcDbEntity
  8
DIM
100
AcDbVertex
100
AcDb2dVertex
 10
4.957635961580995
 20
23.19149829067745
 30
0.0
 70
     8
  0
VERTEX
  5
218269511EE14404
330
218269511EE143FA
100
AcDbEntity
  8
DIM
100
AcDbVertex
100
AcDb2dVertex
 10
4.943889315312486
 20
23.17968497077355
 30
0.0
 70
     8
  0
VERTEX
  5
218269511EE14405
330
218269511EE143FA
100
AcDbEntity
  8
DIM
100
AcDbVertex
100
AcDb2dVertex
 10
5.046573725955096
 20
23.13863898091845
 30
0.0
 70
    16
  0
VERTEX
  5
218269511EE14406
330
218269511EE143FA
100
AcDbEntity
  8
DIM
100
AcDbVertex
100
AcDb2dVertex
 10
4.976161558657307
 20
23.22659467346511
 30
0.0
 70
    16
  0
VERTEX
  5
218269511EE14407
330
218269511EE143FA
100
AcDbEntity
  8
DIM
100
AcDbVertex
100
AcDb2dVertex
 10
4.943889315312486
 20
23.17968497077355
 30
0.0
 70
    16
  0
SEQEND
  5
218269511EE14408
330
218269511EE143FA
100
AcDbEntity
  8
DIM
  0
POLYLINE
  5
218269511EE14409
330
3858DFB861C84D95
100
AcDbEntity
  8
DIM
100
AcDb2dPolyline
 66
     1
 10
0.0
 20
0.0
 30
0.0
 70
     4
 75
     6
  0
VERTEX
  5
218269511EE1440A
330
218269511EE14409
100
AcDbEntity
  8
DIM
100
AcDbVertex
100
AcDb2dVertex
 10
5.081779809603991
 20
23.27057251973844
 30
0.0
 70
    16
  0
VERTEX
  5
218269511EE1440B
330
218269511EE14409
100
AcDbEntity
  8
DIM
100
AcDbVertex
100
AcDb2dVertex
 10
5.081779809603991
 20
23.27057251973844
 30
0.0
 70
     8
  0
VERTEX
  5
218269511EE1440C
330
218269511EE14409
100
AcDbEntity
  8
DIM
100
AcDbVertex
100
AcDb2dVertex
 10
5.067070496985711
 20
23.25587315367286
 30
0.0
 70
     8
  0
VERTEX
  5
218269511EE1440D
330
218269511EE14409
100
AcDbEntity
  8
DIM
100
AcDbVertex
100
AcDb2dVertex
 10
5.049920137551926
 20
23.25137802225039
 30
0.0
 70
     8
  0
VERTEX
  5
218269511EE1440E
330
218269511EE14409
100
AcDbEntity
  8
DIM
100
AcDbVertex
100
AcDb2dVertex
 10
5.031188254829236
 20
23.25382314469293
 30
0.0
 70
     8
  0
VERTEX
  5
218269511EE1440F
330
218269511EE14409
100
AcDbEntity
  8
DIM
100
AcDbVertex
100
AcDb2dVertex
 10
5.011734372344212
 20
23.25994454022238
 30
0.0
 70
     8
  0
VERTEX
  5
218269511EE14410
330
218269511EE14409
100
AcDbEntity
  8
DIM
100
AcDbVertex
100
AcDb2dVertex
 10
4.992418013623439
 20
23.26647822806064
 30
0.0
 70
     8
  0
VERTEX
  5
218269511EE14411
330
218269511EE14409
100
AcDbEntity
  8
DIM
100
AcDbVertex
100
AcDb2dVertex
 10
4.974098702193505
 20
23.27016022742963
 30
0.0
 70
     8
  0
VERTEX
  5
218269511EE14412
330
218269511EE14409
100
AcDbEntity
  8
DIM
100
AcDbVertex
100
AcDb2dVertex
 10
4.957635961580995
 20
23.26772655755122
 30
0.0
 70
     8
  0
VERTEX
  5
218269511EE14413
330
218269511EE14409
100
AcDbEntity
  8
DIM
100
AcDbVertex
100
AcDb2dVertex
 10
4.943889315312486
 20
23.25591323764732
 30
0.0
 70
     8
  0
VERTEX
  5
218269511EE14414
330
218269511EE14409
100
AcDbEntity
  8
DIM
100
AcDbVertex
100
AcDb2dVertex
 10
5.046573725955096
 20
23.21486724779222
 30
0.0
 70
    16
  0
VERTEX
  5
218269511EE14415
330
218269511EE14409
100
AcDbEntity
  8
DIM
100
AcDbVertex
100
AcDb2dVertex
 10
4.976161558657307
 20
23.30282294033888
 30
0.0
 70
    16
  0
VERTEX
  5
218269511EE14416
330
218269511EE14409
100
AcDbEntity
  8
DIM
100
AcDbVertex
100
AcDb2dVertex
 10
4.943889315312486
 20
23.25591323764732
 30
0.0
 70
    16
  0
SEQEND
  5
218269511EE14417
330
218269511EE14409
100
AcDbEntity
  8
DIM
  0
LINE
  5
218269511EE14418
330
3858DFB861C84D95
100
AcDbEntity
  8
DIM
  6
DOT
100
AcDbLine
 10
5.002313881970192
 20
23.26292461952292
 30
0.0
 11
5.002313881970192
 21
27.80522684413738
 31
0.0
  0
LINE
  5
218269511EE14419
330
3858DFB861C84D95
100
AcDbEntity
  8
DIM
100
AcDbLine
 10
5.755631384338603
 20
18.26799058998788
 30
0.0
 11
5.755631384338603
 21
17.96632906469441
 31
0.0
  0
LINE
  5
218269511EE1441A
330
3858DFB861C84D95
100
AcDbEntity
  8
DIM
100
AcDbLine
 10
5.755631384338603
 20
18.08132906469441
 30
0.0
 11
5.815631384338598
 21
18.08132906469441
 31
0.0
  0
LINE
  5
218269511EE1441B
330
3858DFB861C84D95
100
AcDbEntity
  8
DIM
100
AcDbLine
 10
5.722726441376235
 20
17.90632906469441
 30
0.0
 11
5.815631384338598
 21
17.90632906469441
 31
0.0
  0
LINE
  5
218269511EE1441C
330
3858DFB861C84D95
100
AcDbEntity
  8
DIM
100
AcDbLine
 10
5.630631384338596
 20
18.28132906469441
 30
0.0
 11
5.630631384338596
 21
18.14132906469441
 31
0.0
  0
LINE
  5
218269511EE1441D
330
3858DFB861C84D95
100
AcDbEntity
  8
DIM
100
AcDbLine
 10
5.690631384338598
 20
18.26799058998788
 30
0.0
 11
5.690631384338598
 21
18.20132906469441
 31
0.0
  0
LINE
  5
218269511EE1441E
330
3858DFB861C84D95
100
AcDbEntity
  8
DIM
100
AcDbLine
 10
5.690631384338598
 20
18.26799058998788
 30
0.0
 11
5.723215414760251
 21
18.26799058998788
 31
0.0
  0
LINE
  5
218269511EE1441F
330
3858DFB861C84D95
100
AcDbEntity
  8
DIM
100
AcDbLine
 10
5.723215414760251
 20
18.26799058998788
 30
0.0
 11
5.723215414760251
 21
18.28132906469441
 31
0.0
  0
LINE
  5
218269511EE14420
330
3858DFB861C84D95
100
AcDbEntity
  8
DIM
100
AcDbLine
 10
5.742774350120744
 20
18.26799058998788
 30
0.0
 11
5.742774350120744
 21
18.28132906469441
 31
0.0
  0
LINE
  5
218269511EE14421
330
3858DFB861C84D95
100
AcDbEntity
  8
DIM
100
AcDbLine
 10
5.742774350120744
 20
18.26799058998788
 30
0.0
 11
5.755631384338603
 21
18.26799058998788
 31
0.0
  0
CIRCLE
  5
218269511EE14422
330
3858DFB861C84D95
100
AcDbEntity
  8
DIM
100
AcDbCircle
 10
5.722726441376235
 20
18.23427424117833
 30
0.0
 40
0.0317617778640722
  0
LINE
  5
218269511EE14423
330
3858DFB861C84D95
100
AcDbEntity
  8
DIM
100
AcDbLine
 10
5.755631384338603
 20
17.96632906469441
 30
0.0
 11
5.815631384338598
 21
17.95916838060183
 31
0.0
  0
LINE
  5
218269511EE14424
330
3858DFB861C84D95
100
AcDbEntity
  8
DIM
100
AcDbLine
 10
5.690964663512166
 20
17.96646549542999
 30
0.0
 11
5.629821498413872
 21
17.95916838060183
 31
0.0
  0
LINE
  5
218269511EE14425
330
3858DFB861C84D95
100
AcDbEntity
  8
DIM
100
AcDbLine
 10
5.722726441376235
 20
17.90632906469441
 30
0.0
 11
5.629821498413872
 21
17.90632906469441
 31
0.0
  0
LINE
  5
218269511EE14426
330
3858DFB861C84D95
100
AcDbEntity
  8
DIM
100
AcDbLine
 10
5.690964663512166
 20
18.23427424117833
 30
0.0
 11
5.690964663512166
 21
17.96646549542999
 31
0.0
  0
LINE
  5
218269511EE14427
330
3858DFB861C84D95
100
AcDbEntity
  8
DIM
100
AcDbLine
 10
5.629821498413872
 20
17.95916838060183
 30
0.0
 11
5.629821498413872
 21
17.90632906469441
 31
0.0
  0
LINE
  5
218269511EE14428
330
3858DFB861C84D95
100
AcDbEntity
  8
DIM
100
AcDbLine
 10
5.690964663512166
 20
18.14132906469441
 30
0.0
 11
5.630631384338596
 21
18.14132906469441
 31
0.0
  0
LINE
  5
218269511EE14429
330
3858DFB861C84D95
100
AcDbEntity
  8
DIM
100
AcDbLine
 10
5.815631384338598
 20
17.95916838060183
 30
0.0
 11
5.815631384338598
 21
17.90632906469441
 31
0.0
  0
LINE
  5
218269511EE1442A
330
3858DFB861C84D95
100
AcDbEntity
  8
DIM
100
AcDbLine
 10
5.630631384338596
 20
18.28132906469441
 30
0.0
 11
5.723215414760251
 21
18.28132906469441
 31
0.0
  0
LINE
  5
218269511EE1442B
330
3858DFB861C84D95
100
AcDbEntity
  8
DIM
100
AcDbLine
 10
5.742774350120744
 20
18.28132906469441
 30
0.0
 11
5.815631384338598
 21
18.28132906469441
 31
0.0
  0
LINE
  5
218269511EE1442C
330
3858DFB861C84D95
100
AcDbEntity
  8
10
100
AcDbLine
 10
8.645374679784406
 20
27.1765185836104
 30
0.0
 11
8.645374679784406
 21
26.9915185836104
 31
0.0
  0
LINE
  5
218269511EE1442D
330
3858DFB861C84D95
100
AcDbEntity
  8
10
100
AcDbLine
 10
7.645374679784407
 20
26.9915185836104
 30
0.0
 11
7.645374679784407
 21
27.1765185836104
 31
0.0
  0
LINE
  5
218269511EE1442E
330
3858DFB861C84D95
100
AcDbEntity
  8
10
100
AcDbLine
 10
7.645374679784407
 20
19.70512265278407
 30
0.0
 11
7.645374679784407
 21
19.89012265278407
 31
0.0
  0
LINE
  5
218269511EE1442F
330
3858DFB861C84D95
100
AcDbEntity
  8
10
100
AcDbLine
 10
8.645374679784406
 20
19.89012265278407
 30
0.0
 11
8.645374679784406
 21
19.70512265278407
 31
0.0
  0
LINE
  5
218269511EE14430
330
3858DFB861C84D95
100
AcDbEntity
  8
10
100
AcDbLine
 10
5.705374679784417
 20
19.70512265278407
 30
0.0
 11
5.705374679784417
 21
19.89012265278407
 31
0.0
  0
LINE
  5
218269511EE14431
330
3858DFB861C84D95
100
AcDbEntity
  8
10
100
AcDbLine
 10
6.705374679784417
 20
19.89012265278407
 30
0.0
 11
6.705374679784417
 21
19.70512265278407
 31
0.0
  0
LINE
  5
218269511EE14432
330
3858DFB861C84D95
100
AcDbEntity
  8
10
100
AcDbLine
 10
6.705374679784417
 20
27.1765185836104
 30
0.0
 11
6.705374679784417
 21
26.9915185836104
 31
0.0
  0
LINE
  5
218269511EE14433
330
3858DFB861C84D95
100
AcDbEntity
  8
10
100
AcDbLine
 10
5.705374679784417
 20
26.9915185836104
 30
0.0
 11
5.705374679784417
 21
27.1765185836104
 31
0.0
  0
INSERT
  5
218269511EE14434
330
3858DFB861C84D95
100
AcDbEntity
  8
XTHIN
100
AcDbBlockReference
  2
FIN3
 10
8.795869798876292
 20
19.10012265278407
 30
0.0
 41
-1.0
  0
INSERT
  5
218269511EE14435
330
3858DFB861C84D95
100
AcDbEntity
  8
XTHIN
100
AcDbBlockReference
  2
FIN3
 10
7.495869798876317
 20
19.10012265278408
 30
0.0
 41
-1.0
 50
180.0
  0
INSERT
  5
218269511EE14436
330
3858DFB861C84D95
100
AcDbEntity
  8
XTHIN
100
AcDbBlockReference
  2
FIN3
 10
6.855869798876303
 20
19.10012265278407
 30
0.0
 41
-1.0
  0
INSERT
  5
218269511EE14437
330
3858DFB861C84D95
100
AcDbEntity
  8
XTHIN
100
AcDbBlockReference
  2
FIN3
 10
5.555869798876313
 20
19.10012265278407
 30
0.0
 41
-1.0
 50
180.0
  0
INSERT
  5
218269511EE14438
330
3858DFB861C84D95
100
AcDbEntity
  8
XTHIN
100
AcDbBlockReference
  2
FIN3
 10
5.555869798876305
 20
27.86078673264598
 30
0.0
 41
-1.0
 50
180.0
  0
INSERT
  5
218269511EE14439
330
3858DFB861C84D95
100
AcDbEntity
  8
XTHIN
100
AcDbBlockReference
  2
FIN3
 10
6.855869798876303
 20
27.86078673264598
 30
0.0
 41
-1.0
  0
INSERT
  5
218269511EE1443A
330
3858DFB861C84D95
100
AcDbEntity
  8
XTHIN
100
AcDbBlockReference
  2
FIN3
 10
7.495869798876296
 20
27.86078673264598
 30
0.0
 41
-1.0
 50
180.0
  0
INSERT
  5
218269511EE1443B
330
3858DFB861C84D95
100
AcDbEntity
  8
XTHIN
100
AcDbBlockReference
  2
FIN3
 10
8.795869798876292
 20
27.86078673264598
 30
0.0
 41
-1.0
  0
INSERT
  5
218269511EE1443C
330
3858DFB861C84D95
100
AcDbEntity
  8
10
100
AcDbBlockReference
  2
ST
 10
9.325349145433573
 20
18.22949810617806
 30
0.0
 41
-1.0
  0
INSERT
  5
218269511EE1443D
330
3858DFB861C84D95
100
AcDbEntity
  8
10
100
AcDbBlockReference
  2
ST
 10
7.386549093151022
 20
18.22949810617806
 30
0.0
 41
-1.0
  0
INSERT
  5
218269511EE1443E
330
3858DFB861C84D95
100
AcDbEntity
  8
10
100
AcDbBlockReference
  2
B1692
 10
6.835750591607447
 20
28.81608862572723
 30
0.0
 41
-1.0
  0
INSERT
  5
218269511EE1443F
330
3858DFB861C84D95
100
AcDbEntity
  8
10
100
AcDbBlockReference
  2
B1681A
 10
6.205869798876304
 20
28.04378673264598
 30
0.0
 50
90.0
  0
INSERT
  5
218269511EE14440
330
3858DFB861C84D95
100
AcDbEntity
  8
10
100
AcDbBlockReference
  2
B1681A
 10
8.145869798876315
 20
28.04378673264598
 30
0.0
 50
90.0
  0
INSERT
  5
218269511EE14441
330
3858DFB861C84D95
100
AcDbEntity
  8
10
100
AcDbBlockReference
  2
B1681A
 10
8.145869798876315
 20
18.91712265278408
 30
0.0
 41
-1.0
 50
90.0
  0
INSERT
  5
218269511EE14442
330
3858DFB861C84D95
100
AcDbEntity
  8
10
100
AcDbBlockReference
  2
B1681A
 10
6.205869798876304
 20
18.91712265278408
 30
0.0
 41
-1.0
 50
90.0
  0
INSERT
  5
218269511EE14443
330
3858DFB861C84D95
100
AcDbEntity
  8
10
100
AcDbBlockReference
  2
SH-12
 10
5.100824865704336
 20
28.1017315804707
 30
0.0
 41
-1.0
 50
90.0
  0
INSERT
  5
218269511EE14444
330
3858DFB861C84D95
100
AcDbEntity
  8
10
100
AcDbBlockReference
  2
B2434
 10
5.084907824482482
 20
18.46825300793392
 30
0.0
 50
90.0
  0
INSERT
  5
218269511EE14445
330
3858DFB861C84D95
100
AcDbEntity
  8
10
100
AcDbBlockReference
  2
BOWSPRNG
 10
5.087037381082308
 20
28.48754037398917
 30
0.0
 50
90.0
  0
INSERT
  5
218269511EE14446
330
3858DFB861C84D95
100
AcDbEntity
  8
10
100
AcDbBlockReference
  2
B1693
 10
8.980869798876309
 20
17.55931695821563
 30
0.0
 41
-1.0
  0
LINE
  5
218269511EE14496
330
3858DFB861C84D95
100
AcDbEntity
  8
THIN
100
AcDbLine
 10
6.006207079201883
 20
17.79214862825476
 30
0.0
 11
5.956457793792691
 21
17.79714948830828
 31
0.0
  0
LWPOLYLINE
  5
218269511EE144B2
330
3858DFB861C84D95
100
AcDbEntity
  8
THIN
100
AcDbPolyline
 90
       10
 70
     0
 43
0.0
 10
6.461413776163427
 20
17.20444051665989
 10
6.244280651427841
 20
17.16903986493481
 10
6.231889800995306
 20
17.1518216529034
 10
6.214671588963897
 20
17.16421250333594
 10
5.958005238852136
 20
17.12383930528448
 42
-0.4931454260313047
 10
5.940666772429942
 20
17.14014409453251
 10
5.981202778934299
 20
17.54340220120881
 10
5.967778251327599
 20
17.55982724484762
 10
5.984203294966413
 20
17.57325177245433
 10
6.006207079201884
 20
17.79214862825476
  0
LWPOLYLINE
  5
218269511EE144BE
330
3858DFB861C84D95
100
AcDbEntity
  8
THIN
100
AcDbPolyline
 90
       10
 70
     0
 43
0.0
 10
5.956457793792692
 20
17.79714948830828
 10
5.884400239312981
 20
17.08031042356005
 42
0.493145426031304
 10
5.901738705735175
 20
17.06400563431202
 10
6.706341748227254
 20
17.19371258113152
 42
0.4142135623730969
 10
6.726984905047856
 20
17.22239812237584
 10
6.726981686806791
 20
17.22241786175082
 42
0.4142135623730919
 10
6.698296145562464
 20
17.24306101857142
 10
6.491022838627371
 20
17.20926787825877
 10
6.478631988194836
 20
17.19204966622736
 10
6.461413776163427
 20
17.20444051665989
  0
INSERT
  5
218269511EE144CA
330
3858DFB861C84D95
100
AcDbEntity
  8
10
100
AcDbBlockReference
  2
B1693
 10
19.9968487682868
 20
17.55931695821563
 30
0.0
 41
-1.0
  0
LWPOLYLINE
  5
218269511EE144D8
330
3858DFB861C84D95
100
AcDbEntity
  8
3
100
AcDbPolyline
 90
        4
 70
     1
 43
0.0
 10
9.066241493468425
 20
29.82037282037264
 10
9.941241493468425
 20
29.82037282037264
 10
9.941241493468425
 20
29.07037282037264
 10
9.066241493468425
 20
29.07037282037264
  0
INSERT
  5
EA90DCF131A8F611
330
3858DFB861C84D95
100
AcDbEntity
  8
0
100
AcDbBlockReference
 66
     1
  2
ASDTNUM
 10
0.0
 20
0.0
 30
0.0
 41
2.0
 42
2.0
 43
2.0
  0
ATTRIB
  5
EA90DCF131A8F612
330
EA90DCF131A8F611
100
AcDbEntity
  8
THIN
100
AcDbText
 10
2.290983928326711
 20
1.415592934259747
 30
0.0
 40
0.36
  1
4/96
 51
10.0
  7
ROMANS
100
AcDbAttribute
280
     0
  2
REV:
 70
     0
280
     0
  0
ATTRIB
  5
EA90DCF131A8F613
330
EA90DCF131A8F611
100
AcDbEntity
  8
THIN
100
AcDbText
 10
28.37917954563818
 20
1.314
 30
0.0
 40
0.5
  1
140
 51
10.0
  7
ROMANS
100
AcDbAttribute
280
     0
  2
AS#
 70
     0
280
     0
  0
SEQEND
  5
EA90DCF131A8F614
330
EA90DCF131A8F611
100
AcDbEntity
  8
0
  0
INSERT
  5
3858DFB861C84D12
330
3858DFB861C84D95
100
AcDbEntity
  8
0
100
AcDbBlockReference
  2
7-8ICPT
 10
10.91559942839309
 20
6.860196390561113
 30
0.0
  0
INSERT
  5
3858DFB861C84D14
330
3858DFB861C84D95
100
AcDbEntity
  8
0
100
AcDbBlockReference
  2
7-8ICPT
 10
15.41574820964327
 20
4.919206152377326
 30
0.0
  0
INSERT
  5
3858DFB861C84D18
330
3858DFB861C84D95
100
AcDbEntity
  8
0
100
AcDbBlockReference
  2
7-8ICPT
 10
6.544874679784411
 20
27.04803673264599
 30
0.0
 41
-1.0
 50
90.0
  0
INSERT
  5
3858DFB861C84D19
330
3858DFB861C84D95
100
AcDbEntity
  8
0
100
AcDbBlockReference
  2
7-8ICPT
 10
8.4848746797844
 20
27.048036732646
 30
0.0
 41
-1.0
 50
90.0
  0
INSERT
  5
3858DFB861C84D1D
330
3858DFB861C84D95
100
AcDbEntity
  8
0
100
AcDbBlockReference
  2
7-8ICPT
 10
8.4848746797844
 20
19.85887265278408
 30
0.0
 50
90.0
  0
INSERT
  5
3858DFB861C84D1E
330
3858DFB861C84D95
100
AcDbEntity
  8
0
100
AcDbBlockReference
  2
7-8ICPT
 10
6.544874679784411
 20
19.85887265278409
 30
0.0
 50
90.0
  0
INSERT
  5
3858DFB861C84D25
330
3858DFB861C84D95
100
AcDbEntity
  8
0
100
AcDbBlockReference
  2
7-8ICPT
 10
14.97781773395373
 20
6.860196390561113
 30
0.0
 41
-1.0
  0
INSERT
  5
3858DFB861C84D26
330
3858DFB861C84D95
100
AcDbEntity
  8
0
100
AcDbBlockReference
  2
7-8ICPT
 10
19.47892036980931
 20
4.919206152377326
 30
0.0
 41
-1.0
  0
ENDSEC
  0
SECTION
  2
OBJECTS
  0
DICTIONARY
  5
3858DFB861C84D32
330
0
100
AcDbDictionary
281
     1
  3
ACAD_CIP_PREVIOUS_PRODUCT_INFO
350
EA90DCF131A8F61B
  3
ACAD_COLOR
350
3858DFB861C84D88
  3
ACAD_DETAILVIEWSTYLE
350
3858DFB861C84D8F
  3
ACAD_GROUP
350
3858DFB861C84D33
  3
ACAD_LAYOUT
350
3858DFB861C84D87
  3
ACAD_MATERIAL
350
3858DFB861C84D36
  3
ACAD_MLEADERSTYLE
350
3858DFB861C84D8B
  3
ACAD_MLINESTYLE
350
3858DFB861C84D84
  3
ACAD_PLOTSETTINGS
350
3858DFB861C84D86
  3
ACAD_PLOTSTYLENAME
350
3858DFB861C84D34
  3
ACAD_SCALELIST
350
3858DFB861C84D68
  3
ACAD_SECTIONVIEWSTYLE
350
3858DFB861C84D8D
  3
ACAD_TABLESTYLE
350
3858DFB861C84D89
  3
ACAD_VISUALSTYLE
350
3858DFB861C84D4F
  3
ACDB_RECOMPOSE_DATA
350
EA90DCF131A8F625
  3
AcDbVariableDictionary
350
EA90DCF131A8F61C
  0
XRECORD
  5
EA90DCF131A8F61B
102
{ACAD_REACTORS
330
3858DFB861C84D32
102
}
330
3858DFB861C84D32
100
AcDbXrecord
280
     1
300
ACDLT
300
2019
300

  0
DICTIONARY
  5
3858DFB861C84D88
102
{ACAD_REACTORS
330
3858DFB861C84D32
102
}
330
3858DFB861C84D32
100
AcDbDictionary
281
     1
  0
DICTIONARY
  5
3858DFB861C84D8F
102
{ACAD_REACTORS
330
3858DFB861C84D32
102
}
330
3858DFB861C84D32
100
AcDbDictionary
281
     1
  3
Imperial24
350
3858DFB861C84D90
  0
DICTIONARY
  5
3858DFB861C84D33
102
{ACAD_REACTORS
330
3858DFB861C84D32
102
}
330
3858DFB861C84D32
100
AcDbDictionary
281
     1
  0
DICTIONARY
  5
3858DFB861C84D87
102
{ACAD_REACTORS
330
3858DFB861C84D32
102
}
330
3858DFB861C84D32
100
AcDbDictionary
281
     1
  3
Layout1
350
3858DFB861C84D94
  3
Model
350
3858DFB861C84D98
  0
DICTIONARY
  5
3858DFB861C84D36
102
{ACAD_REACTORS
330
3858DFB861C84D32
102
}
330
3858DFB861C84D32
100
AcDbDictionary
281
     1
  3
ByBlock
350
3858DFB861C84D3F
  3
ByLayer
350
3858DFB861C84D37
  3
Global
350
3858DFB861C84D47
  0
DICTIONARY
  5
3858DFB861C84D8B
102
{ACAD_REACTORS
330
3858DFB861C84D32
102
}
330
3858DFB861C84D32
100
AcDbDictionary
281
     1
  3
Standard
350
3858DFB861C84D8C
  0
DICTIONARY
  5
3858DFB861C84D84
102
{ACAD_REACTORS
330
3858DFB861C84D32
102
}
330
3858DFB861C84D32
100
AcDbDictionary
281
     1
  3
Standard
350
3858DFB861C84D85
  0
DICTIONARY
  5
3858DFB861C84D86
102
{ACAD_REACTORS
330
3858DFB861C84D32
102
}
330
3858DFB861C84D32
100
AcDbDictionary
281
     1
  0
ACDBDICTIONARYWDFLT
  5
3858DFB861C84D34
102
{ACAD_REACTORS
330
3858DFB861C84D32
102
}
330
3858DFB861C84D32
100
AcDbDictionary
281
     1
  3
Normal
350
3858DFB861C84D35
100
AcDbDictionaryWithDefault
340
3858DFB861C84D35
  0
DICTIONARY
  5
3858DFB861C84D68
102
{ACAD_REACTORS
330
3858DFB861C84D32
102
}
330
3858DFB861C84D32
100
AcDbDictionary
281
     1
  3
A0
350
3858DFB861C84D69
  3
A1
350
3858DFB861C84D6A
  3
A2
350
3858DFB861C84D6B
  3
A3
350
3858DFB861C84D6C
  3
A4
350
3858DFB861C84D6D
  3
A5
350
3858DFB861C84D6E
  3
A6
350
3858DFB861C84D6F
  3
A7
350
3858DFB861C84D70
  3
A8
350
3858DFB861C84D71
  3
A9
350
3858DFB861C84D72
  3
B0
350
3858DFB861C84D73
  3
B1
350
3858DFB861C84D74
  3
B2
350
3858DFB861C84D75
  3
B3
350
3858DFB861C84D76
  3
B4
350
3858DFB861C84D77
  3
B5
350
3858DFB861C84D78
  3
B6
350
3858DFB861C84D79
  0
DICTIONARY
  5
3858DFB861C84D8D
102
{ACAD_REACTORS
330
3858DFB861C84D32
102
}
330
3858DFB861C84D32
100
AcDbDictionary
281
     1
  3
Imperial24
350
3858DFB861C84D8E
  0
DICTIONARY
  5
3858DFB861C84D89
102
{ACAD_REACTORS
330
3858DFB861C84D32
102
}
330
3858DFB861C84D32
100
AcDbDictionary
281
     1
  3
Standard
350
3858DFB861C84D8A
  0
DICTIONARY
  5
3858DFB861C84D4F
102
{ACAD_REACTORS
330
3858DFB861C84D32
102
}
330
3858DFB861C84D32
100
AcDbDictionary
281
     1
  3
2dWireframe
350
3858DFB861C84D55
  3
Basic
350
3858DFB861C84D54
  3
Brighten
350
3858DFB861C84D5B
  3
ColorChange
350
3858DFB861C84D5F
  3
Conceptual
350
3858DFB861C84D58
  3
Dim
350
3858DFB861C84D5A
  3
EdgeColorOff
350
3858DFB861C84D67
  3
Facepattern
350
3858DFB861C84D5E
  3
Flat
350
3858DFB861C84D50
  3
FlatWithEdges
350
3858DFB861C84D51
  3
Gouraud
350
3858DFB861C84D52
  3
GouraudWithEdges
350
3858DFB861C84D53
  3
Hidden
350
3858DFB861C84D57
  3
JitterOff
350
3858DFB861C84D65
  3
Linepattern
350
3858DFB861C84D5D
  3
OverhangOff
350
3858DFB861C84D66
  3
Realistic
350
3858DFB861C84D59
  3
Shaded
350
3858DFB861C84D64
  3
Shaded with edges
350
3858DFB861C84D63
  3
Shades of Gray
350
3858DFB861C84D60
  3
Sketchy
350
3858DFB861C84D61
  3
Thicken
350
3858DFB861C84D5C
  3
Wireframe
350
3858DFB861C84D56
  3
X-Ray
350
3858DFB861C84D62
  0
XRECORD
  5
EA90DCF131A8F625
102
{ACAD_REACTORS
330
3858DFB861C84D32
102
}
330
3858DFB861C84D32
100
AcDbXrecord
280
     1
 90
        1
330
3858DFB861C84D8A
  0
DICTIONARY
  5
EA90DCF131A8F61C
102
{ACAD_REACTORS
330
3858DFB861C84D32
102
}
330
3858DFB861C84D32
100
AcDbDictionary
281
     1
  3
CANNOSCALE
350
EA90DCF131A8F621
  3
CMLEADERSTYLE
350
EA90DCF131A8F61E
  3
CTABLESTYLE
350
EA90DCF131A8F61D
  3
CVIEWDETAILSTYLE
350
EA90DCF131A8F61F
  3
CVIEWSECTIONSTYLE
350
EA90DCF131A8F620
  0
ACDBDETAILVIEWSTYLE
  5
3858DFB861C84D90
102
{ACAD_REACTORS
330
3858DFB861C84D8F
102
}
330
3858DFB861C84D8F
100
AcDbModelDocViewStyle
 70
     0
  3
Imperial24
290
     1
300
Imperial24
 90
        0
100
AcDbDetailViewStyle
 70
     0
 71
     0
 90
        3
 71
     1
340
3858DFB861C84D7B
 62
   256
 40
0.24
340
0
 62
   256
 40
0.24
300

 40
0.36
280
     3
 71
     2
340
3858DFB861C84D82
 90
       25
 62
   256
 71
     3
340
3858DFB861C84D7B
 62
   256
 40
0.24
 90
        1
 40
0.75
 90
        1
300
%<\AcVar ViewType \f "%tc1">% %<\AcVar ViewDetailId>%\PSCALE %<\AcVar ViewScale \f "%sn">%
 71
     4
340
3858DFB861C84D82
 90
       25
 62
   256
340
3858DFB861C84D82
 90
       25
 62
   256
280
     0
  0
LAYOUT
  5
3858DFB861C84D94
102
{ACAD_REACTORS
330
3858DFB861C84D87
102
}
330
3858DFB861C84D87
100
AcDbPlotSettings
  1

  2
Synergis PDF Printer
  4

  6

 40
0.0
 41
0.0
 42
0.0
 43
0.0
 44
0.0
 45
0.0
 46
0.0
 47
0.0
 48
0.0
 49
0.0
140
0.0
141
0.0
142
1.0
143
1.0
 70
   688
 72
     0
 73
     0
 74
     5
  7

 75
    16
147
1.0
 76
     0
 77
     2
 78
   300
148
0.0
149
0.0
100
AcDbLayout
  1
Layout1
 70
     1
 71
     1
 10
0.0
 20
0.0
 11
12.0
 21
9.0
 12
0.0
 22
0.0
 32
0.0
 14
1.000000000000000E+20
 24
1.000000000000000E+20
 34
1.000000000000000E+20
 15
-1.000000000000000E+20
 25
-1.000000000000000E+20
 35
-1.000000000000000E+20
146
0.0
 13
0.0
 23
0.0
 33
0.0
 16
1.0
 26
0.0
 36
0.0
 17
0.0
 27
1.0
 37
0.0
 76
     0
330
3858DFB861C84D91
  0
LAYOUT
  5
3858DFB861C84D98
102
{ACAD_REACTORS
330
3858DFB861C84D87
102
}
330
3858DFB861C84D87
100
AcDbPlotSettings
  1

  2
Synergis PDF Printer
  4

  6

 40
0.0
 41
0.0
 42
0.0
 43
0.0
 44
0.0
 45
0.0
 46
0.0
 47
0.0
 48
0.0
 49
0.0
140
0.0
141
0.0
142
1.0
143
1.0
 70
  1712
 72
     0
 73
     0
 74
     0
  7

 75
     0
147
1.0
 76
     0
 77
     2
 78
   300
148
0.0
149
0.0
100
AcDbLayout
  1
Model
 70
     1
 71
     0
 10
0.0
 20
0.0
 11
12.0
 21
9.0
 12
0.0
 22
0.0
 32
0.0
 14
0.0
 24
0.0
 34
0.0
 15
0.0
 25
0.0
 35
0.0
146
0.0
 13
0.0
 23
0.0
 33
0.0
 16
1.0
 26
0.0
 36
0.0
 17
0.0
 27
1.0
 37
0.0
 76
     0
330
3858DFB861C84D95
331
3858DFB861C84DCF
  0
MATERIAL
  5
3858DFB861C84D3F
102
{ACAD_XDICTIONARY
360
3858DFB861C84D40
102
}
102
{ACAD_REACTORS
330
3858DFB861C84D36
102
}
330
3858DFB861C84D36
100
AcDbMaterial
  1
ByBlock
 72
     0
 43
0.0208333333333333
 43
0.0
 43
0.0
 43
0.0
 43
0.0
 43
0.0208333333333333
 43
0.0
 43
0.0
 43
0.0
 43
0.0
 43
1.0
 43
0.0
 43
0.0
 43
0.0
 43
0.0
 43
1.0
 77
     0
 47
0.0208333333333333
 47
0.0
 47
0.0
 47
0.0
 47
0.0
 47
0.0208333333333333
 47
0.0
 47
0.0
 47
0.0
 47
0.0
 47
1.0
 47
0.0
 47
0.0
 47
0.0
 47
0.0
 47
1.0
171
     0
 49
0.0208333333333333
 49
0.0
 49
0.0
 49
0.0
 49
0.0
 49
0.0208333333333333
 49
0.0
 49
0.0
 49
0.0
 49
0.0
 49
1.0
 49
0.0
 49
0.0
 49
0.0
 49
0.0
 49
1.0
175
     0
142
0.0208333333333333
142
0.0
142
0.0
142
0.0
142
0.0
142
0.0208333333333333
142
0.0
142
0.0
142
0.0
142
0.0
142
1.0
142
0.0
142
0.0
142
0.0
142
0.0
142
1.0
179
     0
144
0.0208333333333333
144
0.0
144
0.0
144
0.0
144
0.0
144
0.0208333333333333
144
0.0
144
0.0
144
0.0
144
0.0
144
1.0
144
0.0
144
0.0
144
0.0
144
0.0
144
1.0
147
0.0208333333333333
147
0.0
147
0.0
147
0.0
147
0.0
147
0.0208333333333333
147
0.0
147
0.0
147
0.0
147
0.0
147
1.0
147
0.0
147
0.0
147
0.0
147
0.0
147
1.0
  0
MATERIAL
  5
3858DFB861C84D37
102
{ACAD_XDICTIONARY
360
3858DFB861C84D38
102
}
102
{ACAD_REACTORS
330
3858DFB861C84D36
102
}
330
3858DFB861C84D36
100
AcDbMaterial
  1
ByLayer
 72
     0
 43
0.0208333333333333
 43
0.0
 43
0.0
 43
0.0
 43
0.0
 43
0.0208333333333333
 43
0.0
 43
0.0
 43
0.0
 43
0.0
 43
1.0
 43
0.0
 43
0.0
 43
0.0
 43
0.0
 43
1.0
 77
     0
 47
0.0208333333333333
 47
0.0
 47
0.0
 47
0.0
 47
0.0
 47
0.0208333333333333
 47
0.0
 47
0.0
 47
0.0
 47
0.0
 47
1.0
 47
0.0
 47
0.0
 47
0.0
 47
0.0
 47
1.0
171
     0
 49
0.0208333333333333
 49
0.0
 49
0.0
 49
0.0
 49
0.0
 49
0.0208333333333333
 49
0.0
 49
0.0
 49
0.0
 49
0.0
 49
1.0
 49
0.0
 49
0.0
 49
0.0
 49
0.0
 49
1.0
175
     0
142
0.0208333333333333
142
0.0
142
0.0
142
0.0
142
0.0
142
0.0208333333333333
142
0.0
142
0.0
142
0.0
142
0.0
142
1.0
142
0.0
142
0.0
142
0.0
142
0.0
142
1.0
179
     0
144
0.0208333333333333
144
0.0
144
0.0
144
0.0
144
0.0
144
0.0208333333333333
144
0.0
144
0.0
144
0.0
144
0.0
144
1.0
144
0.0
144
0.0
144
0.0
144
0.0
144
1.0
147
0.0208333333333333
147
0.0
147
0.0
147
0.0
147
0.0
147
0.0208333333333333
147
0.0
147
0.0
147
0.0
147
0.0
147
1.0
147
0.0
147
0.0
147
0.0
147
0.0
147
1.0
  0
MATERIAL
  5
3858DFB861C84D47
102
{ACAD_XDICTIONARY
360
3858DFB861C84D48
102
}
102
{ACAD_REACTORS
330
3858DFB861C84D36
102
}
330
3858DFB861C84D36
100
AcDbMaterial
  1
Global
 72
     0
 43
0.0208333333333333
 43
0.0
 43
0.0
 43
0.0
 43
0.0
 43
0.0208333333333333
 43
0.0
 43
0.0
 43
0.0
 43
0.0
 43
1.0
 43
0.0
 43
0.0
 43
0.0
 43
0.0
 43
1.0
 77
     0
 47
0.0208333333333333
 47
0.0
 47
0.0
 47
0.0
 47
0.0
 47
0.0208333333333333
 47
0.0
 47
0.0
 47
0.0
 47
0.0
 47
1.0
 47
0.0
 47
0.0
 47
0.0
 47
0.0
 47
1.0
171
     0
 49
0.0208333333333333
 49
0.0
 49
0.0
 49
0.0
 49
0.0
 49
0.0208333333333333
 49
0.0
 49
0.0
 49
0.0
 49
0.0
 49
1.0
 49
0.0
 49
0.0
 49
0.0
 49
0.0
 49
1.0
175
     0
142
0.0208333333333333
142
0.0
142
0.0
142
0.0
142
0.0
142
0.0208333333333333
142
0.0
142
0.0
142
0.0
142
0.0
142
1.0
142
0.0
142
0.0
142
0.0
142
0.0
142
1.0
179
     0
144
0.0208333333333333
144
0.0
144
0.0
144
0.0
144
0.0
144
0.0208333333333333
144
0.0
144
0.0
144
0.0
144
0.0
144
1.0
144
0.0
144
0.0
144
0.0
144
0.0
144
1.0
147
0.0208333333333333
147
0.0
147
0.0
147
0.0
147
0.0
147
0.0208333333333333
147
0.0
147
0.0
147
0.0
147
0.0
147
1.0
147
0.0
147
0.0
147
0.0
147
0.0
147
1.0
  0
MLEADERSTYLE
  5
3858DFB861C84D8C
102
{ACAD_REACTORS
330
3858DFB861C84D8B
102
}
330
3858DFB861C84D8B
100
AcDbMLeaderStyle
179
     2
170
     2
171
     1
172
     0
 90
        2
 40
0.0
 41
0.0
173
     1
 91
-1056964608
340
3858DFB861C84D80
 92
       -2
290
     1
 42
0.09
291
     1
 43
0.36
  3
Standard
 44
0.18
300

342
3858DFB861C84D7B
174
     1
178
     6
175
     1
176
     0
 93
-1056964608
 45
0.18
292
     0
297
     0
 46
0.18
 94
-1056964608
 47
1.0
 49
1.0
140
1.0
293
     1
141
0.0
294
     1
177
     0
142
1.0
295
     1
296
     0
143
0.125
271
     0
272
     9
273
     9
298
     1
  0
MLINESTYLE
  5
3858DFB861C84D85
102
{ACAD_REACTORS
330
3858DFB861C84D84
102
}
330
3858DFB861C84D84
100
AcDbMlineStyle
  2
STANDARD
 70
     0
  3

 62
   256
 51
90.0
 52
90.0
 71
     2
 49
0.5
 62
   256
  6
BYLAYER
 49
-0.5
 62
   256
  6
BYLAYER
  0
ACDBPLACEHOLDER
  5
3858DFB861C84D35
102
{ACAD_REACTORS
330
3858DFB861C84D34
102
}
330
3858DFB861C84D34
  0
SCALE
  5
3858DFB861C84D69
102
{ACAD_REACTORS
330
3858DFB861C84D68
102
}
330
3858DFB861C84D68
100
AcDbScale
 70
     0
300
1:1
140
1.0
141
1.0
290
     1
  0
SCALE
  5
3858DFB861C84D6A
102
{ACAD_REACTORS
330
3858DFB861C84D68
102
}
330
3858DFB861C84D68
100
AcDbScale
 70
     0
300
1/128" = 1'-0"
140
0.0078125
141
12.0
290
     0
  0
SCALE
  5
3858DFB861C84D6B
102
{ACAD_REACTORS
330
3858DFB861C84D68
102
}
330
3858DFB861C84D68
100
AcDbScale
 70
     0
300
1/64" = 1'-0"
140
0.015625
141
12.0
290
     0
  0
SCALE
  5
3858DFB861C84D6C
102
{ACAD_REACTORS
330
3858DFB861C84D68
102
}
330
3858DFB861C84D68
100
AcDbScale
 70
     0
300
1/32" = 1'-0"
140
0.03125
141
12.0
290
     0
  0
SCALE
  5
3858DFB861C84D6D
102
{ACAD_REACTORS
330
3858DFB861C84D68
102
}
330
3858DFB861C84D68
100
AcDbScale
 70
     0
300
1/16" = 1'-0"
140
0.0625
141
12.0
290
     0
  0
SCALE
  5
3858DFB861C84D6E
102
{ACAD_REACTORS
330
3858DFB861C84D68
102
}
330
3858DFB861C84D68
100
AcDbScale
 70
     0
300
3/32" = 1'-0"
140
0.09375
141
12.0
290
     0
  0
SCALE
  5
3858DFB861C84D6F
102
{ACAD_REACTORS
330
3858DFB861C84D68
102
}
330
3858DFB861C84D68
100
AcDbScale
 70
     0
300
1/8" = 1'-0"
140
0.125
141
12.0
290
     0
  0
SCALE
  5
3858DFB861C84D70
102
{ACAD_REACTORS
330
3858DFB861C84D68
102
}
330
3858DFB861C84D68
100
AcDbScale
 70
     0
300
3/16" = 1'-0"
140
0.1875
141
12.0
290
     0
  0
SCALE
  5
3858DFB861C84D71
102
{ACAD_REACTORS
330
3858DFB861C84D68
102
}
330
3858DFB861C84D68
100
AcDbScale
 70
     0
300
1/4" = 1'-0"
140
0.25
141
12.0
290
     0
  0
SCALE
  5
3858DFB861C84D72
102
{ACAD_REACTORS
330
3858DFB861C84D68
102
}
330
3858DFB861C84D68
100
AcDbScale
 70
     0
300
3/8" = 1'-0"
140
0.375
141
12.0
290
     0
  0
SCALE
  5
3858DFB861C84D73
102
{ACAD_REACTORS
330
3858DFB861C84D68
102
}
330
3858DFB861C84D68
100
AcDbScale
 70
     0
300
1/2" = 1'-0"
140
0.5
141
12.0
290
     0
  0
SCALE
  5
3858DFB861C84D74
102
{ACAD_REACTORS
330
3858DFB861C84D68
102
}
330
3858DFB861C84D68
100
AcDbScale
 70
     0
300
3/4" = 1'-0"
140
0.75
141
12.0
290
     0
  0
SCALE
  5
3858DFB861C84D75
102
{ACAD_REACTORS
330
3858DFB861C84D68
102
}
330
3858DFB861C84D68
100
AcDbScale
 70
     0
300
1" = 1'-0"
140
1.0
141
12.0
290
     0
  0
SCALE
  5
3858DFB861C84D76
102
{ACAD_REACTORS
330
3858DFB861C84D68
102
}
330
3858DFB861C84D68
100
AcDbScale
 70
     0
300
1-1/2" = 1'-0"
140
1.5
141
12.0
290
     0
  0
SCALE
  5
3858DFB861C84D77
102
{ACAD_REACTORS
330
3858DFB861C84D68
102
}
330
3858DFB861C84D68
100
AcDbScale
 70
     0
300
3" = 1'-0"
140
3.0
141
12.0
290
     0
  0
SCALE
  5
3858DFB861C84D78
102
{ACAD_REACTORS
330
3858DFB861C84D68
102
}
330
3858DFB861C84D68
100
AcDbScale
 70
     0
300
6" = 1'-0"
140
6.0
141
12.0
290
     0
  0
SCALE
  5
3858DFB861C84D79
102
{ACAD_REACTORS
330
3858DFB861C84D68
102
}
330
3858DFB861C84D68
100
AcDbScale
 70
     0
300
1'-0" = 1'-0"
140
12.0
141
12.0
290
     0
  0
ACDBSECTIONVIEWSTYLE
  5
3858DFB861C84D8E
102
{ACAD_REACTORS
330
3858DFB861C84D8D
102
}
330
3858DFB861C84D8D
100
AcDbModelDocViewStyle
 70
     0
  3
Imperial24
290
     1
300
Imperial24
 90
        0
100
AcDbSectionViewStyle
 70
     0
 71
     0
 90
       78
 71
     1
340
3858DFB861C84D7B
 62
   256
 40
0.24
340
0
340
0
 62
   256
 40
0.24
300
I, O, Q, S, X, Z
 40
0.48
 90
        3
 40
0.18
 90
        1
 71
     2
340
3858DFB861C84D82
 90
       25
 62
   256
340
3858DFB861C84D82
 90
       50
 62
   256
 40
0.24
 40
0.0
 40
0.24
 71
     3
340
3858DFB861C84D7B
 62
   256
 40
0.24
 90
        1
 40
0.75
 90
        1
300
%<\AcVar ViewType \f "%tc1">% %<\AcVar ViewSectionStartId>%-%<\AcVar ViewSectionEndId>%\PSCALE %<\AcVar ViewScale \f "%sn">%
 71
     4
 62
   256
 62
   257
300
ANSI31
 40
1.0
 90
        0
290
     0
290
     0
 90
        6
 40
0.0
 40
1.570796326794896
 40
0.2617993877991494
 40
1.308996938995747
 40
-0.2617993877991494
 40
1.832595714594046
  0
TABLESTYLE
  5
3858DFB861C84D8A
102
{ACAD_XDICTIONARY
360
EA90DCF131A8F623
102
}
102
{ACAD_REACTORS
330
3858DFB861C84D89
102
}
330
3858DFB861C84D89
100
AcDbTableStyle
280
     0
  3
Standard
 70
     0
 71
     0
 40
0.06
 41
0.06
280
     0
281
     0
  7
STANDARD
140
0.18
170
     2
 62
     0
 63
     7
283
     0
 90
      512
 91
        0
  1

274
    -2
284
     1
 64
     0
275
    -2
285
     1
 65
     0
276
    -2
286
     1
 66
     0
277
    -2
287
     1
 67
     0
278
    -2
288
     1
 68
     0
279
    -2
289
     1
 69
     0
  7
STANDARD
140
0.25
170
     5
 62
     0
 63
     7
283
     0
 90
      512
 91
        0
  1

274
    -2
284
     1
 64
     0
275
    -2
285
     1
 65
     0
276
    -2
286
     1
 66
     0
277
    -2
287
     1
 67
     0
278
    -2
288
     1
 68
     0
279
    -2
289
     1
 69
     0
  7
STANDARD
140
0.18
170
     5
 62
     0
 63
     7
283
     0
 90
      512
 91
        0
  1

274
    -2
284
     1
 64
     0
275
    -2
285
     1
 65
     0
276
    -2
286
     1
 66
     0
277
    -2
287
     1
 67
     0
278
    -2
288
     1
 68
     0
279
    -2
289
     1
 69
     0
  0
VISUALSTYLE
  5
3858DFB861C84D55
102
{ACAD_REACTORS
330
3858DFB861C84D4F
102
}
330
3858DFB861C84D4F
100
AcDbVisualStyle
  2
2dWireframe
 70
     4
177
     3
291
     0
 70
    58
 90
        0
176
     1
 90
        2
176
     1
 90
        0
176
     1
 90
        0
176
     1
 40
0.6
176
     1
 40
30.0
176
     1
 62
     7
420
 16777215
176
     1
 90
        1
176
     1
 90
        4
176
     1
 62
     7
176
     1
 62
   257
176
     1
 90
        1
176
     1
 90
        1
176
     1
 40
1.0
176
     1
 90
        0
176
     1
 62
   257
176
     1
 40
1.0
176
     1
 90
        1
176
     1
 90
        6
176
     1
 90
        2
176
     1
 62
     7
176
     1
 90
        5
176
     1
 90
        0
176
     1
 90
        0
176
     1
290
     0
176
     1
 90
        1
176
     1
 40
0.0
176
     1
 90
        0
176
     1
290
     1
176
     1
290
     1
176
     1
290
     0
176
     1
290
     0
176
     1
290
     0
176
     1
290
     0
176
     1
290
     0
176
     1
290
     0
176
     1
290
     0
176
     1
 90
       50
176
     1
 40
0.0
176
     1
 40
1.0
176
     1
 90
        0
176
     1
 62
    18
420
        0
176
     1
 90
       50
176
     1
 90
        3
176
     1
 62
     5
420
      255
176
     1
290
     0
176
     1
 90
       50
176
     1
 90
       50
176
     1
 90
       50
176
     1
290
     0
176
     1
 90
       50
176
     1
 62
   256
176
     0
 40
1.0
176
     0
 90
        2
176
     1
  1
strokes_ogs.tif
176
     1
290
     0
176
     1
 40
1.0
176
     1
 40
1.0
176
     1
  0
VISUALSTYLE
  5
3858DFB861C84D54
102
{ACAD_REACTORS
330
3858DFB861C84D4F
102
}
330
3858DFB861C84D4F
100
AcDbVisualStyle
  2
Basic
 70
     7
177
     3
291
     1
 70
    58
 90
        1
176
     1
 90
        0
176
     1
 90
        1
176
     1
 90
        0
176
     1
 40
0.6
176
     1
 40
30.0
176
     1
 62
     7
420
 16777215
176
     1
 90
        0
176
     1
 90
        4
176
     1
 62
     7
176
     1
 62
   257
176
     1
 90
        1
176
     1
 90
        1
176
     1
 40
1.0
176
     1
 90
        8
176
     1
 62
     7
176
     1
 40
1.0
176
     1
 90
        1
176
     1
 90
        6
176
     1
 90
        2
176
     1
 62
     7
176
     1
 90
        5
176
     1
 90
        0
176
     1
 90
        0
176
     1
290
     0
176
     1
 90
        1
176
     1
 40
0.0
176
     1
 90
        0
176
     1
290
     0
176
     1
290
     1
176
     1
290
     1
176
     1
290
     0
176
     1
290
     0
176
     1
290
     0
176
     1
290
     0
176
     1
290
     0
176
     1
290
     0
176
     1
 90
       50
176
     1
 40
0.0
176
     1
 40
1.0
176
     1
 90
        0
176
     1
 62
    18
420
        0
176
     1
 90
       50
176
     1
 90
        3
176
     1
 62
     5
420
      255
176
     1
290
     0
176
     1
 90
       50
176
     1
 90
       50
176
     1
 90
       50
176
     1
290
     0
176
     1
 90
       50
176
     1
 62
   256
176
     0
 40
1.0
176
     0
 90
        2
176
     1
  1
strokes_ogs.tif
176
     1
290
     0
176
     1
 40
1.0
176
     1
 40
1.0
176
     1
  0
VISUALSTYLE
  5
3858DFB861C84D5B
102
{ACAD_REACTORS
330
3858DFB861C84D4F
102
}
330
3858DFB861C84D4F
100
AcDbVisualStyle
  2
Brighten
 70
    12
177
     3
291
     1
 70
    58
 90
        2
176
     1
 90
        2
176
     1
 90
        0
176
     1
 90
        0
176
     1
 40
0.6
176
     1
 40
30.0
176
     1
 62
     7
420
 16777215
176
     1
 90
        1
176
     1
 90
        4
176
     1
 62
     7
176
     1
 62
   257
176
     1
 90
        1
176
     1
 90
        1
176
     1
 40
1.0
176
     1
 90
        8
176
     1
 62
     7
176
     1
 40
1.0
176
     1
 90
        1
176
     1
 90
        6
176
     1
 90
        2
176
     1
 62
     7
176
     1
 90
        5
176
     1
 90
        0
176
     1
 90
        0
176
     1
290
     0
176
     1
 90
        1
176
     1
 40
50.0
176
     1
 90
        0
176
     1
290
     0
176
     1
290
     1
176
     1
290
     1
176
     1
290
     0
176
     1
290
     0
176
     1
290
     0
176
     1
290
     0
176
     1
290
     0
176
     1
290
     0
176
     1
 90
       50
176
     1
 40
0.0
176
     1
 40
1.0
176
     1
 90
        0
176
     1
 62
    18
420
        0
176
     1
 90
       50
176
     1
 90
        3
176
     1
 62
     5
420
      255
176
     1
290
     0
176
     1
 90
       50
176
     1
 90
       50
176
     1
 90
       50
176
     1
290
     0
176
     1
 90
       50
176
     1
 62
   256
176
     0
 40
1.0
176
     0
 90
        2
176
     1
  1
strokes_ogs.tif
176
     1
290
     0
176
     1
 40
1.0
176
     1
 40
1.0
176
     1
  0
VISUALSTYLE
  5
3858DFB861C84D5F
102
{ACAD_REACTORS
330
3858DFB861C84D4F
102
}
330
3858DFB861C84D4F
100
AcDbVisualStyle
  2
ColorChange
 70
    16
177
     3
291
     1
 70
    58
 90
        2
176
     1
 90
        2
176
     1
 90
        3
176
     1
 90
        0
176
     1
 40
0.6
176
     1
 40
30.0
176
     1
 62
     8
420
  8421504
176
     1
 90
        1
176
     1
 90
        4
176
     1
 62
     7
176
     1
 62
   257
176
     1
 90
        1
176
     1
 90
        1
176
     1
 40
1.0
176
     1
 90
        8
176
     1
 62
     8
420
  8421504
176
     1
 40
1.0
176
     1
 90
        1
176
     1
 90
        6
176
     1
 90
        2
176
     1
 62
     7
176
     1
 90
        5
176
     1
 90
        0
176
     1
 90
        0
176
     1
290
     0
176
     1
 90
        1
176
     1
 40
0.0
176
     1
 90
        0
176
     1
290
     0
176
     1
290
     1
176
     1
290
     1
176
     1
290
     0
176
     1
290
     0
176
     1
290
     0
176
     1
290
     0
176
     1
290
     0
176
     1
290
     0
176
     1
 90
       50
176
     1
 40
0.0
176
     1
 40
1.0
176
     1
 90
        0
176
     1
 62
    18
420
        0
176
     1
 90
       50
176
     1
 90
        3
176
     1
 62
     5
420
      255
176
     1
290
     0
176
     1
 90
       50
176
     1
 90
       50
176
     1
 90
       50
176
     1
290
     0
176
     1
 90
       50
176
     1
 62
   256
176
     0
 40
1.0
176
     0
 90
        2
176
     1
  1
strokes_ogs.tif
176
     1
290
     0
176
     1
 40
1.0
176
     1
 40
1.0
176
     1
  0
VISUALSTYLE
  5
3858DFB861C84D58
102
{ACAD_REACTORS
330
3858DFB861C84D4F
102
}
330
3858DFB861C84D4F
100
AcDbVisualStyle
  2
Conceptual
 70
     9
177
     3
291
     0
 70
    58
 90
        3
176
     1
 90
        2
176
     1
 90
        0
176
     1
 90
        0
176
     1
 40
0.6
176
     1
 40
30.0
176
     1
 62
     7
420
 16777215
176
     1
 90
        2
176
     1
 90
        2
176
     1
 62
     7
176
     1
 62
   257
176
     1
 90
        1
176
     1
 90
        1
176
     1
 40
179.0
176
     1
 90
        8
176
     1
 62
     7
176
     1
 40
1.0
176
     1
 90
        1
176
     1
 90
        6
176
     1
 90
        2
176
     1
 62
     7
176
     1
 90
        3
176
     1
 90
        0
176
     1
 90
        0
176
     1
290
     0
176
     1
 90
        1
176
     1
 40
0.0
176
     1
 90
        0
176
     1
290
     0
176
     1
290
     1
176
     1
290
     1
176
     1
290
     0
176
     1
290
     0
176
     1
290
     0
176
     1
290
     0
176
     1
290
     0
176
     1
290
     0
176
     1
 90
       50
176
     1
 40
0.0
176
     1
 40
1.0
176
     1
 90
        0
176
     1
 62
    18
420
        0
176
     1
 90
       50
176
     1
 90
        3
176
     1
 62
     5
420
      255
176
     1
290
     0
176
     1
 90
       50
176
     1
 90
       50
176
     1
 90
       50
176
     1
290
     0
176
     1
 90
       50
176
     1
 62
   256
176
     0
 40
1.0
176
     0
 90
        2
176
     1
  1
strokes_ogs.tif
176
     1
290
     0
176
     1
 40
1.0
176
     1
 40
1.0
176
     1
  0
VISUALSTYLE
  5
3858DFB861C84D5A
102
{ACAD_REACTORS
330
3858DFB861C84D4F
102
}
330
3858DFB861C84D4F
100
AcDbVisualStyle
  2
Dim
 70
    11
177
     3
291
     1
 70
    58
 90
        2
176
     1
 90
        2
176
     1
 90
        0
176
     1
 90
        0
176
     1
 40
0.6
176
     1
 40
30.0
176
     1
 62
     7
420
 16777215
176
     1
 90
        1
176
     1
 90
        4
176
     1
 62
     7
176
     1
 62
   257
176
     1
 90
        1
176
     1
 90
        1
176
     1
 40
1.0
176
     1
 90
        8
176
     1
 62
     7
176
     1
 40
1.0
176
     1
 90
        1
176
     1
 90
        6
176
     1
 90
        2
176
     1
 62
     7
176
     1
 90
        5
176
     1
 90
        0
176
     1
 90
        0
176
     1
290
     0
176
     1
 90
        1
176
     1
 40
-50.0
176
     1
 90
        0
176
     1
290
     0
176
     1
290
     1
176
     1
290
     1
176
     1
290
     0
176
     1
290
     0
176
     1
290
     0
176
     1
290
     0
176
     1
290
     0
176
     1
290
     0
176
     1
 90
       50
176
     1
 40
0.0
176
     1
 40
1.0
176
     1
 90
        0
176
     1
 62
    18
420
        0
176
     1
 90
       50
176
     1
 90
        3
176
     1
 62
     5
420
      255
176
     1
290
     0
176
     1
 90
       50
176
     1
 90
       50
176
     1
 90
       50
176
     1
290
     0
176
     1
 90
       50
176
     1
 62
   256
176
     0
 40
1.0
176
     0
 90
        2
176
     1
  1
strokes_ogs.tif
176
     1
290
     0
176
     1
 40
1.0
176
     1
 40
1.0
176
     1
  0
VISUALSTYLE
  5
3858DFB861C84D67
102
{ACAD_REACTORS
330
3858DFB861C84D4F
102
}
330
3858DFB861C84D4F
100
AcDbVisualStyle
  2
EdgeColorOff
 70
    22
177
     3
291
     1
 70
    58
 90
        2
176
     0
 90
        2
176
     0
 90
        0
176
     0
 90
        0
176
     0
 40
0.6
176
     0
 40
30.0
176
     0
 62
     7
420
 16777215
176
     0
 90
        1
176
     0
 90
        4
176
     0
 62
     7
176
     0
 62
   257
176
     0
 90
        1
176
     0
 90
        1
176
     0
 40
1.0
176
     0
 90
        8
176
     2
 62
     7
176
     0
 40
1.0
176
     0
 90
        1
176
     0
 90
        6
176
     0
 90
        2
176
     0
 62
     7
176
     0
 90
        5
176
     0
 90
        0
176
     0
 90
        0
176
     0
290
     0
176
     0
 90
        1
176
     0
 40
0.0
176
     0
 90
        0
176
     0
290
     0
176
     0
290
     1
176
     0
290
     1
176
     0
290
     0
176
     0
290
     0
176
     0
290
     0
176
     0
290
     0
176
     0
290
     0
176
     0
290
     0
176
     0
 90
       50
176
     0
 40
0.0
176
     0
 40
1.0
176
     0
 90
        0
176
     0
 62
    18
420
        0
176
     0
 90
       50
176
     0
 90
        3
176
     0
 62
     5
420
      255
176
     0
290
     0
176
     0
 90
       50
176
     0
 90
       50
176
     0
 90
       50
176
     0
290
     0
176
     0
 90
       50
176
     0
 62
   256
176
     0
 40
1.0
176
     0
 90
        2
176
     0
  1
strokes_ogs.tif
176
     0
290
     0
176
     0
 40
1.0
176
     0
 40
1.0
176
     0
  0
VISUALSTYLE
  5
3858DFB861C84D5E
102
{ACAD_REACTORS
330
3858DFB861C84D4F
102
}
330
3858DFB861C84D4F
100
AcDbVisualStyle
  2
Facepattern
 70
    15
177
     3
291
     1
 70
    58
 90
        2
176
     1
 90
        2
176
     1
 90
        0
176
     1
 90
        0
176
     1
 40
0.6
176
     1
 40
30.0
176
     1
 62
     7
420
 16777215
176
     1
 90
        1
176
     1
 90
        4
176
     1
 62
     7
176
     1
 62
   257
176
     1
 90
        1
176
     1
 90
        1
176
     1
 40
1.0
176
     1
 90
        8
176
     1
 62
     7
176
     1
 40
1.0
176
     1
 90
        1
176
     1
 90
        6
176
     1
 90
        2
176
     1
 62
     7
176
     1
 90
        5
176
     1
 90
        0
176
     1
 90
        0
176
     1
290
     0
176
     1
 90
        1
176
     1
 40
0.0
176
     1
 90
        0
176
     1
290
     0
176
     1
290
     1
176
     1
290
     1
176
     1
290
     0
176
     1
290
     0
176
     1
290
     0
176
     1
290
     0
176
     1
290
     0
176
     1
290
     0
176
     1
 90
       50
176
     1
 40
0.0
176
     1
 40
1.0
176
     1
 90
        0
176
     1
 62
    18
420
        0
176
     1
 90
       50
176
     1
 90
        3
176
     1
 62
     5
420
      255
176
     1
290
     0
176
     1
 90
       50
176
     1
 90
       50
176
     1
 90
       50
176
     1
290
     0
176
     1
 90
       50
176
     1
 62
   256
176
     0
 40
1.0
176
     0
 90
        2
176
     1
  1
strokes_ogs.tif
176
     1
290
     0
176
     1
 40
1.0
176
     1
 40
1.0
176
     1
  0
VISUALSTYLE
  5
3858DFB861C84D50
102
{ACAD_REACTORS
330
3858DFB861C84D4F
102
}
330
3858DFB861C84D4F
100
AcDbVisualStyle
  2
Flat
 70
     0
177
     3
291
     1
 70
    58
 90
        2
176
     1
 90
        1
176
     1
 90
        1
176
     1
 90
        2
176
     1
 40
0.6
176
     1
 40
30.0
176
     1
 62
     7
420
 16777215
176
     1
 90
        0
176
     1
 90
        0
176
     1
 62
     7
176
     1
 62
   257
176
     1
 90
        1
176
     1
 90
        1
176
     1
 40
1.0
176
     1
 90
        8
176
     1
 62
     7
176
     1
 40
1.0
176
     1
 90
        1
176
     1
 90
        6
176
     1
 90
        2
176
     1
 62
     7
176
     1
 90
        5
176
     1
 90
        0
176
     1
 90
        0
176
     1
290
     0
176
     1
 90
       13
176
     1
 40
0.0
176
     1
 90
        0
176
     1
290
     0
176
     1
290
     1
176
     1
290
     1
176
     1
290
     0
176
     1
290
     0
176
     1
290
     0
176
     1
290
     0
176
     1
290
     0
176
     1
290
     0
176
     1
 90
       50
176
     1
 40
0.0
176
     1
 40
1.0
176
     1
 90
        0
176
     1
 62
    18
420
        0
176
     1
 90
       50
176
     1
 90
        3
176
     1
 62
     5
420
      255
176
     1
290
     0
176
     1
 90
       50
176
     1
 90
       50
176
     1
 90
       50
176
     1
290
     0
176
     1
 90
       50
176
     1
 62
   256
176
     0
 40
1.0
176
     0
 90
        2
176
     1
  1
strokes_ogs.tif
176
     1
290
     0
176
     1
 40
1.0
176
     1
 40
1.0
176
     1
  0
VISUALSTYLE
  5
3858DFB861C84D51
102
{ACAD_REACTORS
330
3858DFB861C84D4F
102
}
330
3858DFB861C84D4F
100
AcDbVisualStyle
  2
FlatWithEdges
 70
     1
177
     3
291
     1
 70
    58
 90
        2
176
     1
 90
        1
176
     1
 90
        1
176
     1
 90
        2
176
     1
 40
0.6
176
     1
 40
30.0
176
     1
 62
     7
420
 16777215
176
     1
 90
        1
176
     1
 90
        0
176
     1
 62
     7
176
     1
 62
   257
176
     1
 90
        1
176
     1
 90
        1
176
     1
 40
1.0
176
     1
 90
        0
176
     1
 62
   257
176
     1
 40
1.0
176
     1
 90
        1
176
     1
 90
        6
176
     1
 90
        2
176
     1
 62
     7
176
     1
 90
        5
176
     1
 90
        0
176
     1
 90
        0
176
     1
290
     0
176
     1
 90
       13
176
     1
 40
0.0
176
     1
 90
        0
176
     1
290
     0
176
     1
290
     1
176
     1
290
     1
176
     1
290
     0
176
     1
290
     0
176
     1
290
     0
176
     1
290
     0
176
     1
290
     0
176
     1
290
     0
176
     1
 90
       50
176
     1
 40
0.0
176
     1
 40
1.0
176
     1
 90
        0
176
     1
 62
    18
420
        0
176
     1
 90
       50
176
     1
 90
        3
176
     1
 62
     5
420
      255
176
     1
290
     0
176
     1
 90
       50
176
     1
 90
       50
176
     1
 90
       50
176
     1
290
     0
176
     1
 90
       50
176
     1
 62
   256
176
     0
 40
1.0
176
     0
 90
        2
176
     1
  1
strokes_ogs.tif
176
     1
290
     0
176
     1
 40
1.0
176
     1
 40
1.0
176
     1
  0
VISUALSTYLE
  5
3858DFB861C84D52
102
{ACAD_REACTORS
330
3858DFB861C84D4F
102
}
330
3858DFB861C84D4F
100
AcDbVisualStyle
  2
Gouraud
 70
     2
177
     3
291
     1
 70
    58
 90
        2
176
     1
 90
        2
176
     1
 90
        1
176
     1
 90
        2
176
     1
 40
0.6
176
     1
 40
30.0
176
     1
 62
     7
420
 16777215
176
     1
 90
        0
176
     1
 90
        0
176
     1
 62
     7
176
     1
 62
   257
176
     1
 90
        1
176
     1
 90
        1
176
     1
 40
1.0
176
     1
 90
        0
176
     1
 62
     7
176
     1
 40
1.0
176
     1
 90
        1
176
     1
 90
        6
176
     1
 90
        2
176
     1
 62
     7
176
     1
 90
        5
176
     1
 90
        0
176
     1
 90
        0
176
     1
290
     0
176
     1
 90
       13
176
     1
 40
0.0
176
     1
 90
        0
176
     1
290
     0
176
     1
290
     1
176
     1
290
     1
176
     1
290
     0
176
     1
290
     0
176
     1
290
     0
176
     1
290
     0
176
     1
290
     0
176
     1
290
     0
176
     1
 90
       50
176
     1
 40
0.0
176
     1
 40
1.0
176
     1
 90
        0
176
     1
 62
    18
420
        0
176
     1
 90
       50
176
     1
 90
        3
176
     1
 62
     5
420
      255
176
     1
290
     0
176
     1
 90
       50
176
     1
 90
       50
176
     1
 90
       50
176
     1
290
     0
176
     1
 90
       50
176
     1
 62
   256
176
     0
 40
1.0
176
     0
 90
        2
176
     1
  1
strokes_ogs.tif
176
     1
290
     0
176
     1
 40
1.0
176
     1
 40
1.0
176
     1
  0
VISUALSTYLE
  5
3858DFB861C84D53
102
{ACAD_REACTORS
330
3858DFB861C84D4F
102
}
330
3858DFB861C84D4F
100
AcDbVisualStyle
  2
GouraudWithEdges
 70
     3
177
     3
291
     1
 70
    58
 90
        2
176
     1
 90
        2
176
     1
 90
        1
176
     1
 90
        2
176
     1
 40
0.6
176
     1
 40
30.0
176
     1
 62
     7
420
 16777215
176
     1
 90
        1
176
     1
 90
        0
176
     1
 62
     7
176
     1
 62
   257
176
     1
 90
        1
176
     1
 90
        1
176
     1
 40
1.0
176
     1
 90
        0
176
     1
 62
   257
176
     1
 40
1.0
176
     1
 90
        1
176
     1
 90
        6
176
     1
 90
        2
176
     1
 62
     7
176
     1
 90
        5
176
     1
 90
        0
176
     1
 90
        0
176
     1
290
     0
176
     1
 90
       13
176
     1
 40
0.0
176
     1
 90
        0
176
     1
290
     0
176
     1
290
     1
176
     1
290
     1
176
     1
290
     0
176
     1
290
     0
176
     1
290
     0
176
     1
290
     0
176
     1
290
     0
176
     1
290
     0
176
     1
 90
       50
176
     1
 40
0.0
176
     1
 40
1.0
176
     1
 90
        0
176
     1
 62
    18
420
        0
176
     1
 90
       50
176
     1
 90
        3
176
     1
 62
     5
420
      255
176
     1
290
     0
176
     1
 90
       50
176
     1
 90
       50
176
     1
 90
       50
176
     1
290
     0
176
     1
 90
       50
176
     1
 62
   256
176
     0
 40
1.0
176
     0
 90
        2
176
     1
  1
strokes_ogs.tif
176
     1
290
     0
176
     1
 40
1.0
176
     1
 40
1.0
176
     1
  0
VISUALSTYLE
  5
3858DFB861C84D57
102
{ACAD_REACTORS
330
3858DFB861C84D4F
102
}
330
3858DFB861C84D4F
100
AcDbVisualStyle
  2
Hidden
 70
     6
177
     3
291
     0
 70
    58
 90
        1
176
     1
 90
        2
176
     1
 90
        2
176
     1
 90
        0
176
     1
 40
0.6
176
     1
 40
30.0
176
     1
 62
     7
420
 16777215
176
     1
 90
        2
176
     1
 90
        2
176
     1
 62
     7
176
     1
 62
   257
176
     1
 90
        2
176
     1
 90
        1
176
     1
 40
40.0
176
     1
 90
        0
176
     1
 62
   257
176
     1
 40
1.0
176
     1
 90
        1
176
     1
 90
        6
176
     1
 90
        2
176
     1
 62
     7
176
     1
 90
        3
176
     1
 90
        0
176
     1
 90
        0
176
     1
290
     0
176
     1
 90
        1
176
     1
 40
0.0
176
     1
 90
        0
176
     1
290
     0
176
     1
290
     1
176
     1
290
     1
176
     1
290
     0
176
     1
290
     0
176
     1
290
     0
176
     1
290
     0
176
     1
290
     0
176
     1
290
     0
176
     1
 90
       50
176
     1
 40
0.0
176
     1
 40
1.0
176
     1
 90
        0
176
     1
 62
    18
420
        0
176
     1
 90
       50
176
     1
 90
        3
176
     1
 62
     5
420
      255
176
     1
290
     0
176
     1
 90
       50
176
     1
 90
       50
176
     1
 90
       50
176
     1
290
     0
176
     1
 90
       50
176
     1
 62
   256
176
     0
 40
1.0
176
     0
 90
        2
176
     1
  1
strokes_ogs.tif
176
     1
290
     0
176
     1
 40
1.0
176
     1
 40
1.0
176
     1
  0
VISUALSTYLE
  5
3858DFB861C84D65
102
{ACAD_REACTORS
330
3858DFB861C84D4F
102
}
330
3858DFB861C84D4F
100
AcDbVisualStyle
  2
JitterOff
 70
    20
177
     3
291
     1
 70
    58
 90
        2
176
     0
 90
        2
176
     0
 90
        0
176
     0
 90
        0
176
     0
 40
0.6
176
     0
 40
30.0
176
     0
 62
     7
420
 16777215
176
     0
 90
        1
176
     0
 90
        4
176
     0
 62
     7
176
     0
 62
   257
176
     0
 90
        1
176
     0
 90
        1
176
     0
 40
1.0
176
     0
 90
       10
176
     2
 62
     7
176
     0
 40
1.0
176
     0
 90
        1
176
     0
 90
        6
176
     0
 90
        2
176
     0
 62
     7
176
     0
 90
        5
176
     0
 90
        0
176
     0
 90
        0
176
     0
290
     0
176
     0
 90
        1
176
     0
 40
0.0
176
     0
 90
        0
176
     0
290
     0
176
     0
290
     1
176
     0
290
     1
176
     0
290
     0
176
     0
290
     0
176
     0
290
     0
176
     0
290
     0
176
     0
290
     0
176
     0
290
     0
176
     0
 90
       50
176
     0
 40
0.0
176
     0
 40
1.0
176
     0
 90
        0
176
     0
 62
    18
420
        0
176
     0
 90
       50
176
     0
 90
        3
176
     0
 62
     5
420
      255
176
     0
290
     0
176
     0
 90
       50
176
     0
 90
       50
176
     0
 90
       50
176
     0
290
     0
176
     0
 90
       50
176
     0
 62
   256
176
     0
 40
1.0
176
     0
 90
        2
176
     0
  1
strokes_ogs.tif
176
     0
290
     0
176
     0
 40
1.0
176
     0
 40
1.0
176
     0
  0
VISUALSTYLE
  5
3858DFB861C84D5D
102
{ACAD_REACTORS
330
3858DFB861C84D4F
102
}
330
3858DFB861C84D4F
100
AcDbVisualStyle
  2
Linepattern
 70
    14
177
     3
291
     1
 70
    58
 90
        2
176
     1
 90
        2
176
     1
 90
        0
176
     1
 90
        0
176
     1
 40
0.6
176
     1
 40
30.0
176
     1
 62
     7
420
 16777215
176
     1
 90
        1
176
     1
 90
        4
176
     1
 62
     7
176
     1
 62
   257
176
     1
 90
        7
176
     1
 90
        7
176
     1
 40
1.0
176
     1
 90
        8
176
     1
 62
     7
176
     1
 40
1.0
176
     1
 90
        1
176
     1
 90
        6
176
     1
 90
        2
176
     1
 62
     7
176
     1
 90
        5
176
     1
 90
        0
176
     1
 90
        0
176
     1
290
     0
176
     1
 90
        1
176
     1
 40
0.0
176
     1
 90
        0
176
     1
290
     0
176
     1
290
     1
176
     1
290
     1
176
     1
290
     0
176
     1
290
     0
176
     1
290
     0
176
     1
290
     0
176
     1
290
     0
176
     1
290
     0
176
     1
 90
       50
176
     1
 40
0.0
176
     1
 40
1.0
176
     1
 90
        0
176
     1
 62
    18
420
        0
176
     1
 90
       50
176
     1
 90
        3
176
     1
 62
     5
420
      255
176
     1
290
     0
176
     1
 90
       50
176
     1
 90
       50
176
     1
 90
       50
176
     1
290
     0
176
     1
 90
       50
176
     1
 62
   256
176
     0
 40
1.0
176
     0
 90
        2
176
     1
  1
strokes_ogs.tif
176
     1
290
     0
176
     1
 40
1.0
176
     1
 40
1.0
176
     1
  0
VISUALSTYLE
  5
3858DFB861C84D66
102
{ACAD_REACTORS
330
3858DFB861C84D4F
102
}
330
3858DFB861C84D4F
100
AcDbVisualStyle
  2
OverhangOff
 70
    21
177
     3
291
     1
 70
    58
 90
        2
176
     0
 90
        2
176
     0
 90
        0
176
     0
 90
        0
176
     0
 40
0.6
176
     0
 40
30.0
176
     0
 62
     7
420
 16777215
176
     0
 90
        1
176
     0
 90
        4
176
     0
 62
     7
176
     0
 62
   257
176
     0
 90
        1
176
     0
 90
        1
176
     0
 40
1.0
176
     0
 90
        9
176
     2
 62
     7
176
     0
 40
1.0
176
     0
 90
        1
176
     0
 90
        6
176
     0
 90
        2
176
     0
 62
     7
176
     0
 90
        5
176
     0
 90
        0
176
     0
 90
        0
176
     0
290
     0
176
     0
 90
        1
176
     0
 40
0.0
176
     0
 90
        0
176
     0
290
     0
176
     0
290
     1
176
     0
290
     1
176
     0
290
     0
176
     0
290
     0
176
     0
290
     0
176
     0
290
     0
176
     0
290
     0
176
     0
290
     0
176
     0
 90
       50
176
     0
 40
0.0
176
     0
 40
1.0
176
     0
 90
        0
176
     0
 62
    18
420
        0
176
     0
 90
       50
176
     0
 90
        3
176
     0
 62
     5
420
      255
176
     0
290
     0
176
     0
 90
       50
176
     0
 90
       50
176
     0
 90
       50
176
     0
290
     0
176
     0
 90
       50
176
     0
 62
   256
176
     0
 40
1.0
176
     0
 90
        2
176
     0
  1
strokes_ogs.tif
176
     0
290
     0
176
     0
 40
1.0
176
     0
 40
1.0
176
     0
  0
VISUALSTYLE
  5
3858DFB861C84D59
102
{ACAD_REACTORS
330
3858DFB861C84D4F
102
}
330
3858DFB861C84D4F
100
AcDbVisualStyle
  2
Realistic
 70
     8
177
     3
291
     0
 70
    58
 90
        2
176
     1
 90
        3
176
     1
 90
        0
176
     1
 90
        2
176
     1
 40
0.6
176
     1
 40
30.0
176
     1
 62
     7
420
 16777215
176
     1
 90
        0
176
     1
 90
        0
176
     1
 62
     7
176
     1
 62
   257
176
     1
 90
        1
176
     1
 90
        1
176
     1
 40
1.0
176
     1
 90
        8
176
     1
 62
   257
176
     1
 40
1.0
176
     1
 90
        1
176
     1
 90
        6
176
     1
 90
        2
176
     1
 62
     7
176
     1
 90
        3
176
     1
 90
        0
176
     1
 90
        0
176
     1
290
     0
176
     1
 90
       13
176
     1
 40
0.0
176
     1
 90
        0
176
     1
290
     0
176
     1
290
     1
176
     1
290
     1
176
     1
290
     0
176
     1
290
     0
176
     1
290
     0
176
     1
290
     0
176
     1
290
     0
176
     1
290
     0
176
     1
 90
       50
176
     1
 40
0.0
176
     1
 40
1.0
176
     1
 90
        0
176
     1
 62
    18
420
        0
176
     1
 90
       50
176
     1
 90
        3
176
     1
 62
     5
420
      255
176
     1
290
     0
176
     1
 90
       50
176
     1
 90
       50
176
     1
 90
       50
176
     1
290
     0
176
     1
 90
       50
176
     1
 62
   256
176
     0
 40
1.0
176
     0
 90
        2
176
     1
  1
strokes_ogs.tif
176
     1
290
     0
176
     1
 40
1.0
176
     1
 40
1.0
176
     1
  0
VISUALSTYLE
  5
3858DFB861C84D64
102
{ACAD_REACTORS
330
3858DFB861C84D4F
102
}
330
3858DFB861C84D4F
100
AcDbVisualStyle
  2
Shaded
 70
    27
177
     3
291
     0
 70
    58
 90
        2
176
     1
 90
        2
176
     1
 90
        1
176
     1
 90
        2
176
     1
 40
0.6
176
     1
 40
30.0
176
     1
 62
     7
420
 16777215
176
     1
 90
        0
176
     1
 90
        4
176
     1
 62
     7
176
     1
 62
   257
176
     1
 90
        1
176
     1
 90
        1
176
     1
 40
1.0
176
     1
 90
        8
176
     1
 62
   257
176
     1
 40
1.0
176
     1
 90
        1
176
     1
 90
        6
176
     1
 90
        2
176
     1
 62
     8
420
  7895160
176
     1
 90
        3
176
     1
 90
        0
176
     1
 90
        0
176
     1
290
     0
176
     1
 90
        5
176
     1
 40
0.0
176
     1
 90
        0
176
     1
290
     0
176
     1
290
     1
176
     1
290
     1
176
     1
290
     0
176
     1
290
     0
176
     1
290
     0
176
     1
290
     0
176
     1
290
     0
176
     1
290
     0
176
     1
 90
       50
176
     1
 40
0.0
176
     1
 40
1.0
176
     1
 90
        0
176
     1
 62
    18
420
        0
176
     1
 90
       50
176
     1
 90
        3
176
     1
 62
     5
420
      255
176
     1
290
     0
176
     1
 90
       50
176
     1
 90
       50
176
     1
 90
       50
176
     1
290
     0
176
     1
 90
       50
176
     1
 62
   256
176
     0
 40
1.0
176
     0
 90
        2
176
     1
  1
strokes_ogs.tif
176
     1
290
     0
176
     1
 40
1.0
176
     1
 40
1.0
176
     1
  0
VISUALSTYLE
  5
3858DFB861C84D63
102
{ACAD_REACTORS
330
3858DFB861C84D4F
102
}
330
3858DFB861C84D4F
100
AcDbVisualStyle
  2
Shaded with edges
 70
    26
177
     3
291
     0
 70
    58
 90
        2
176
     1
 90
        2
176
     1
 90
        1
176
     1
 90
        2
176
     1
 40
0.6
176
     1
 40
30.0
176
     1
 62
     7
420
 16777215
176
     1
 90
        1
176
     1
 90
        2
176
     1
 62
     7
176
     1
 62
   257
176
     1
 90
        2
176
     1
 90
        1
176
     1
 40
1.0
176
     1
 90
        8
176
     1
 62
   257
176
     1
 40
1.0
176
     1
 90
        1
176
     1
 90
        6
176
     1
 90
        2
176
     1
 62
     7
176
     1
 90
        3
176
     1
 90
        0
176
     1
 90
        0
176
     1
290
     0
176
     1
 90
        5
176
     1
 40
0.0
176
     1
 90
        0
176
     1
290
     0
176
     1
290
     1
176
     1
290
     1
176
     1
290
     0
176
     1
290
     0
176
     1
290
     0
176
     1
290
     0
176
     1
290
     0
176
     1
290
     0
176
     1
 90
       50
176
     1
 40
0.0
176
     1
 40
1.0
176
     1
 90
        0
176
     1
 62
    18
420
        0
176
     1
 90
       50
176
     1
 90
        3
176
     1
 62
     5
420
      255
176
     1
290
     0
176
     1
 90
       50
176
     1
 90
       50
176
     1
 90
       50
176
     1
290
     0
176
     1
 90
       50
176
     1
 62
   256
176
     0
 40
1.0
176
     0
 90
        2
176
     1
  1
strokes_ogs.tif
176
     1
290
     0
176
     1
 40
1.0
176
     1
 40
1.0
176
     1
  0
VISUALSTYLE
  5
3858DFB861C84D60
102
{ACAD_REACTORS
330
3858DFB861C84D4F
102
}
330
3858DFB861C84D4F
100
AcDbVisualStyle
  2
Shades of Gray
 70
    23
177
     3
291
     0
 70
    58
 90
        2
176
     1
 90
        2
176
     1
 90
        3
176
     1
 90
        0
176
     1
 40
0.6
176
     1
 40
30.0
176
     1
 62
     7
420
 16777215
176
     1
 90
        2
176
     1
 90
        2
176
     1
 62
     7
176
     1
 62
     7
176
     1
 90
        1
176
     1
 90
        1
176
     1
 40
40.0
176
     1
 90
        8
176
     1
 62
     7
176
     1
 40
1.0
176
     1
 90
        1
176
     1
 90
        6
176
     1
 90
        2
176
     1
 62
     7
176
     1
 90
        3
176
     1
 90
        0
176
     1
 90
        0
176
     1
290
     0
176
     1
 90
        1
176
     1
 40
0.0
176
     1
 90
        0
176
     1
290
     0
176
     1
290
     1
176
     1
290
     1
176
     1
290
     0
176
     1
290
     0
176
     1
290
     0
176
     1
290
     0
176
     1
290
     0
176
     1
290
     0
176
     1
 90
       50
176
     1
 40
0.0
176
     1
 40
1.0
176
     1
 90
        0
176
     1
 62
    18
420
        0
176
     1
 90
       50
176
     1
 90
        3
176
     1
 62
     5
420
      255
176
     1
290
     0
176
     1
 90
       50
176
     1
 90
       50
176
     1
 90
       50
176
     1
290
     0
176
     1
 90
       50
176
     1
 62
   256
176
     0
 40
1.0
176
     0
 90
        2
176
     1
  1
strokes_ogs.tif
176
     1
290
     0
176
     1
 40
1.0
176
     1
 40
1.0
176
     1
  0
VISUALSTYLE
  5
3858DFB861C84D61
102
{ACAD_REACTORS
330
3858DFB861C84D4F
102
}
330
3858DFB861C84D4F
100
AcDbVisualStyle
  2
Sketchy
 70
    24
177
     3
291
     0
 70
    58
 90
        1
176
     1
 90
        2
176
     1
 90
        2
176
     1
 90
        0
176
     1
 40
0.6
176
     1
 40
30.0
176
     1
 62
     7
420
 16777215
176
     1
 90
        2
176
     1
 90
        2
176
     1
 62
     7
176
     1
 62
     7
176
     1
 90
        1
176
     1
 90
        1
176
     1
 40
40.0
176
     1
 90
       11
176
     1
 62
     7
176
     1
 40
1.0
176
     1
 90
        1
176
     1
 90
        6
176
     1
 90
        2
176
     1
 62
     7
176
     1
 90
        6
176
     1
 90
        0
176
     1
 90
        0
176
     1
290
     0
176
     1
 90
        1
176
     1
 40
0.0
176
     1
 90
        0
176
     1
290
     0
176
     1
290
     1
176
     1
290
     1
176
     1
290
     0
176
     1
290
     0
176
     1
290
     0
176
     1
290
     0
176
     1
290
     0
176
     1
290
     0
176
     1
 90
       50
176
     1
 40
0.0
176
     1
 40
1.0
176
     1
 90
        0
176
     1
 62
    18
420
        0
176
     1
 90
       50
176
     1
 90
        3
176
     1
 62
     5
420
      255
176
     1
290
     0
176
     1
 90
       50
176
     1
 90
       50
176
     1
 90
       50
176
     1
290
     0
176
     1
 90
       50
176
     1
 62
   256
176
     0
 40
1.0
176
     0
 90
        2
176
     1
  1
strokes_ogs.tif
176
     1
290
     0
176
     1
 40
1.0
176
     1
 40
1.0
176
     1
  0
VISUALSTYLE
  5
3858DFB861C84D5C
102
{ACAD_REACTORS
330
3858DFB861C84D4F
102
}
330
3858DFB861C84D4F
100
AcDbVisualStyle
  2
Thicken
 70
    13
177
     3
291
     1
 70
    58
 90
        2
176
     1
 90
        2
176
     1
 90
        0
176
     1
 90
        0
176
     1
 40
0.6
176
     1
 40
30.0
176
     1
 62
     7
420
 16777215
176
     1
 90
        1
176
     1
 90
        4
176
     1
 62
     7
176
     1
 62
   257
176
     1
 90
        1
176
     1
 90
        1
176
     1
 40
1.0
176
     1
 90
       12
176
     1
 62
     7
176
     1
 40
1.0
176
     1
 90
        1
176
     1
 90
        6
176
     1
 90
        2
176
     1
 62
     7
176
     1
 90
        5
176
     1
 90
        0
176
     1
 90
        0
176
     1
290
     0
176
     1
 90
        1
176
     1
 40
0.0
176
     1
 90
        0
176
     1
290
     0
176
     1
290
     1
176
     1
290
     1
176
     1
290
     0
176
     1
290
     0
176
     1
290
     0
176
     1
290
     0
176
     1
290
     0
176
     1
290
     0
176
     1
 90
       50
176
     1
 40
0.0
176
     1
 40
1.0
176
     1
 90
        0
176
     1
 62
    18
420
        0
176
     1
 90
       50
176
     1
 90
        3
176
     1
 62
     5
420
      255
176
     1
290
     0
176
     1
 90
       50
176
     1
 90
       50
176
     1
 90
       50
176
     1
290
     0
176
     1
 90
       50
176
     1
 62
   256
176
     0
 40
1.0
176
     0
 90
        2
176
     1
  1
strokes_ogs.tif
176
     1
290
     0
176
     1
 40
1.0
176
     1
 40
1.0
176
     1
  0
VISUALSTYLE
  5
3858DFB861C84D56
102
{ACAD_REACTORS
330
3858DFB861C84D4F
102
}
330
3858DFB861C84D4F
100
AcDbVisualStyle
  2
Wireframe
 70
     5
177
     3
291
     0
 70
    58
 90
        0
176
     1
 90
        2
176
     1
 90
        0
176
     1
 90
        0
176
     1
 40
0.6
176
     1
 40
30.0
176
     1
 62
     7
420
 16777215
176
     1
 90
        1
176
     1
 90
        4
176
     1
 62
     7
176
     1
 62
   257
176
     1
 90
        1
176
     1
 90
        1
176
     1
 40
1.0
176
     1
 90
        0
176
     1
 62
   257
176
     1
 40
1.0
176
     1
 90
        1
176
     1
 90
        6
176
     1
 90
        2
176
     1
 62
     7
176
     1
 90
        3
176
     1
 90
        0
176
     1
 90
        0
176
     1
290
     0
176
     1
 90
        1
176
     1
 40
0.0
176
     1
 90
        0
176
     1
290
     0
176
     1
290
     1
176
     1
290
     1
176
     1
290
     0
176
     1
290
     0
176
     1
290
     0
176
     1
290
     0
176
     1
290
     0
176
     1
290
     0
176
     1
 90
       50
176
     1
 40
0.0
176
     1
 40
1.0
176
     1
 90
        0
176
     1
 62
    18
420
        0
176
     1
 90
       50
176
     1
 90
        3
176
     1
 62
     5
420
      255
176
     1
290
     0
176
     1
 90
       50
176
     1
 90
       50
176
     1
 90
       50
176
     1
290
     0
176
     1
 90
       50
176
     1
 62
   256
176
     0
 40
1.0
176
     0
 90
        2
176
     1
  1
strokes_ogs.tif
176
     1
290
     0
176
     1
 40
1.0
176
     1
 40
1.0
176
     1
  0
VISUALSTYLE
  5
3858DFB861C84D62
102
{ACAD_REACTORS
330
3858DFB861C84D4F
102
}
330
3858DFB861C84D4F
100
AcDbVisualStyle
  2
X-Ray
 70
    25
177
     3
291
     0
 70
    58
 90
        2
176
     1
 90
        2
176
     1
 90
        1
176
     1
 90
        1
176
     1
 40
0.5
176
     1
 40
30.0
176
     1
 62
     7
420
 16777215
176
     1
 90
        1
176
     1
 90
        0
176
     1
 62
     7
176
     1
 62
   257
176
     1
 90
        1
176
     1
 90
        1
176
     1
 40
1.0
176
     1
 90
        8
176
     1
 62
     7
176
     1
 40
1.0
176
     1
 90
        1
176
     1
 90
        6
176
     1
 90
        2
176
     1
 62
     7
176
     1
 90
        3
176
     1
 90
        0
176
     1
 90
        0
176
     1
290
     0
176
     1
 90
       13
176
     1
 40
0.0
176
     1
 90
        0
176
     1
290
     0
176
     1
290
     1
176
     1
290
     1
176
     1
290
     0
176
     1
290
     0
176
     1
290
     0
176
     1
290
     0
176
     1
290
     0
176
     1
290
     0
176
     1
 90
       50
176
     1
 40
0.0
176
     1
 40
1.0
176
     1
 90
        0
176
     1
 62
    18
420
        0
176
     1
 90
       50
176
     1
 90
        3
176
     1
 62
     5
420
      255
176
     1
290
     0
176
     1
 90
       50
176
     1
 90
       50
176
     1
 90
       50
176
     1
290
     0
176
     1
 90
       50
176
     1
 62
   256
176
     0
 40
1.0
176
     0
 90
        2
176
     1
  1
strokes_ogs.tif
176
     1
290
     0
176
     1
 40
1.0
176
     1
 40
1.0
176
     1
  0
DICTIONARYVAR
  5
EA90DCF131A8F621
102
{ACAD_REACTORS
330
EA90DCF131A8F61C
102
}
330
EA90DCF131A8F61C
100
DictionaryVariables
280
     0
  1
1:1
  0
DICTIONARYVAR
  5
EA90DCF131A8F61E
102
{ACAD_REACTORS
330
EA90DCF131A8F61C
102
}
330
EA90DCF131A8F61C
100
DictionaryVariables
280
     0
  1
STANDARD
  0
DICTIONARYVAR
  5
EA90DCF131A8F61D
102
{ACAD_REACTORS
330
EA90DCF131A8F61C
102
}
330
EA90DCF131A8F61C
100
DictionaryVariables
280
     0
  1
STANDARD
  0
DICTIONARYVAR
  5
EA90DCF131A8F61F
102
{ACAD_REACTORS
330
EA90DCF131A8F61C
102
}
330
EA90DCF131A8F61C
100
DictionaryVariables
280
     0
  1
Imperial24
  0
DICTIONARYVAR
  5
EA90DCF131A8F620
102
{ACAD_REACTORS
330
EA90DCF131A8F61C
102
}
330
EA90DCF131A8F61C
100
DictionaryVariables
280
     0
  1
Imperial24
  0
DICTIONARY
  5
3858DFB861C84D40
330
3858DFB861C84D3F
100
AcDbDictionary
280
     1
281
     1
  3
BUMPTILE
360
3858DFB861C84D42
  3
DIFFUSETILE
360
3858DFB861C84D41
  3
OPACITYTILE
360
3858DFB861C84D45
  3
REFLECTIONTILE
360
3858DFB861C84D44
  3
REFRACTIONTILE
360
3858DFB861C84D46
  3
SPECULARTILE
360
3858DFB861C84D43
  0
DICTIONARY
  5
3858DFB861C84D38
330
3858DFB861C84D37
100
AcDbDictionary
280
     1
281
     1
  3
BUMPTILE
360
3858DFB861C84D3A
  3
DIFFUSETILE
360
3858DFB861C84D39
  3
OPACITYTILE
360
3858DFB861C84D3D
  3
REFLECTIONTILE
360
3858DFB861C84D3C
  3
REFRACTIONTILE
360
3858DFB861C84D3E
  3
SPECULARTILE
360
3858DFB861C84D3B
  0
DICTIONARY
  5
3858DFB861C84D48
330
3858DFB861C84D47
100
AcDbDictionary
280
     1
281
     1
  3
BUMPTILE
360
3858DFB861C84D4A
  3
DIFFUSETILE
360
3858DFB861C84D49
  3
OPACITYTILE
360
3858DFB861C84D4D
  3
REFLECTIONTILE
360
3858DFB861C84D4C
  3
REFRACTIONTILE
360
3858DFB861C84D4E
  3
SPECULARTILE
360
3858DFB861C84D4B
  0
DICTIONARY
  5
EA90DCF131A8F623
330
3858DFB861C84D8A
100
AcDbDictionary
280
     1
281
     1
  3
ACAD_ROUNDTRIP_2008_TABLESTYLE_CELLSTYLEMAP
360
EA90DCF131A8F624
  0
XRECORD
  5
3858DFB861C84D42
102
{ACAD_REACTORS
330
3858DFB861C84D40
102
}
330
3858DFB861C84D40
100
AcDbXrecord
280
     1
270
     1
271
     1
  0
XRECORD
  5
3858DFB861C84D41
102
{ACAD_REACTORS
330
3858DFB861C84D40
102
}
330
3858DFB861C84D40
100
AcDbXrecord
280
     1
270
     1
271
     1
  0
XRECORD
  5
3858DFB861C84D45
102
{ACAD_REACTORS
330
3858DFB861C84D40
102
}
330
3858DFB861C84D40
100
AcDbXrecord
280
     1
270
     1
271
     1
  0
XRECORD
  5
3858DFB861C84D44
102
{ACAD_REACTORS
330
3858DFB861C84D40
102
}
330
3858DFB861C84D40
100
AcDbXrecord
280
     1
270
     1
271
     1
  0
XRECORD
  5
3858DFB861C84D46
102
{ACAD_REACTORS
330
3858DFB861C84D40
102
}
330
3858DFB861C84D40
100
AcDbXrecord
280
     1
270
     1
271
     1
  0
XRECORD
  5
3858DFB861C84D43
102
{ACAD_REACTORS
330
3858DFB861C84D40
102
}
330
3858DFB861C84D40
100
AcDbXrecord
280
     1
270
     1
271
     1
  0
XRECORD
  5
3858DFB861C84D3A
102
{ACAD_REACTORS
330
3858DFB861C84D38
102
}
330
3858DFB861C84D38
100
AcDbXrecord
280
     1
270
     1
271
     1
  0
XRECORD
  5
3858DFB861C84D39
102
{ACAD_REACTORS
330
3858DFB861C84D38
102
}
330
3858DFB861C84D38
100
AcDbXrecord
280
     1
270
     1
271
     1
  0
XRECORD
  5
3858DFB861C84D3D
102
{ACAD_REACTORS
330
3858DFB861C84D38
102
}
330
3858DFB861C84D38
100
AcDbXrecord
280
     1
270
     1
271
     1
  0
XRECORD
  5
3858DFB861C84D3C
102
{ACAD_REACTORS
330
3858DFB861C84D38
102
}
330
3858DFB861C84D38
100
AcDbXrecord
280
     1
270
     1
271
     1
  0
XRECORD
  5
3858DFB861C84D3E
102
{ACAD_REACTORS
330
3858DFB861C84D38
102
}
330
3858DFB861C84D38
100
AcDbXrecord
280
     1
270
     1
271
     1
  0
XRECORD
  5
3858DFB861C84D3B
102
{ACAD_REACTORS
330
3858DFB861C84D38
102
}
330
3858DFB861C84D38
100
AcDbXrecord
280
     1
270
     1
271
     1
  0
XRECORD
  5
3858DFB861C84D4A
102
{ACAD_REACTORS
330
3858DFB861C84D48
102
}
330
3858DFB861C84D48
100
AcDbXrecord
280
     1
270
     1
271
     1
  0
XRECORD
  5
3858DFB861C84D49
102
{ACAD_REACTORS
330
3858DFB861C84D48
102
}
330
3858DFB861C84D48
100
AcDbXrecord
280
     1
270
     1
271
     1
  0
XRECORD
  5
3858DFB861C84D4D
102
{ACAD_REACTORS
330
3858DFB861C84D48
102
}
330
3858DFB861C84D48
100
AcDbXrecord
280
     1
270
     1
271
     1
  0
XRECORD
  5
3858DFB861C84D4C
102
{ACAD_REACTORS
330
3858DFB861C84D48
102
}
330
3858DFB861C84D48
100
AcDbXrecord
280
     1
270
     1
271
     1
  0
XRECORD
  5
3858DFB861C84D4E
102
{ACAD_REACTORS
330
3858DFB861C84D48
102
}
330
3858DFB861C84D48
100
AcDbXrecord
280
     1
270
     1
271
     1
  0
XRECORD
  5
3858DFB861C84D4B
102
{ACAD_REACTORS
330
3858DFB861C84D48
102
}
330
3858DFB861C84D48
100
AcDbXrecord
280
     1
270
     1
271
     1
  0
CELLSTYLEMAP
  5
EA90DCF131A8F624
102
{ACAD_REACTORS
330
EA90DCF131A8F623
102
}
330
EA90DCF131A8F623
100
AcDbCellStyleMap
 90
        3
300
CELLSTYLE
  1
TABLEFORMAT_BEGIN
 90
        5
170
     1
 91
        0
 92
    32768
 62
   257
 93
        1
300
CONTENTFORMAT
  1
CONTENTFORMAT_BEGIN
 90
        0
 91
        0
 92
      512
 93
        0
300

 40
0.0
140
1.0
 94
        5
 62
     0
340
3858DFB861C84D7B
144
0.25
309
CONTENTFORMAT_END
171
     0
 94
        0
309
TABLEFORMAT_END
  1
CELLSTYLE_BEGIN
 90
        1
 91
        1
300
_TITLE
309
CELLSTYLE_END
300
CELLSTYLE
  1
TABLEFORMAT_BEGIN
 90
        5
170
     1
 91
        0
 92
        0
 62
   257
 93
        1
300
CONTENTFORMAT
  1
CONTENTFORMAT_BEGIN
 90
        0
 91
        0
 92
      512
 93
        0
300

 40
0.0
140
1.0
 94
        5
 62
     0
340
3858DFB861C84D7B
144
0.18
309
CONTENTFORMAT_END
171
     0
 94
        0
309
TABLEFORMAT_END
  1
CELLSTYLE_BEGIN
 90
        2
 91
        1
300
_HEADER
309
CELLSTYLE_END
300
CELLSTYLE
  1
TABLEFORMAT_BEGIN
 90
        5
170
     1
 91
        0
 92
        0
 62
   257
 93
        1
300
CONTENTFORMAT
  1
CONTENTFORMAT_BEGIN
 90
        0
 91
        0
 92
      512
 93
        0
300

 40
0.0
140
1.0
 94
        2
 62
     0
340
3858DFB861C84D7B
144
0.18
309
CONTENTFORMAT_END
171
     0
 94
        0
309
TABLEFORMAT_END
  1
CELLSTYLE_BEGIN
 90
        3
 91
        2
300
_DATA
309
CELLSTYLE_END
  0
ENDSEC
  0
EOF
