  0
SECTION
  2
HEADER
  9
$ACADVER
  1
AC1032
  9
$ACADMAINTVER
 90
       55
  9
$DWGCODEPAGE
  3
ANSI_1252
  9
$LASTSAVEDBY
  1
Administrator
  9
$REQUIREDVERSIONS
160
                 0
  9
$INSBASE
 10
0.0
 20
0.0
 30
0.0
  9
$EXTMIN
 10
6.509067012685671
 20
1.065182445155087
 30
0.0
  9
$EXTMAX
 10
23.50906701268567
 20
23.06518244515509
 30
0.0
  9
$LIMMIN
 10
0.0
 20
0.0
  9
$LIMMAX
 10
16.0
 20
10.0
  9
$ORTHOMODE
 70
     0
  9
$REGENMODE
 70
     0
  9
$FILLMODE
 70
     1
  9
$QTEXTMODE
 70
     0
  9
$MIRRTEXT
 70
     1
  9
$LTSCALE
 40
1.0
  9
$ATTMODE
 70
     1
  9
$TEXTSIZE
 40
0.1
  9
$TRACEWID
 40
0.05
  9
$TEXTSTYLE
  7
ROMANS
  9
$CLAYER
  8
0
  9
$CELTYPE
  6
ByLayer
  9
$CECOLOR
 62
   256
  9
$CELTSCALE
 40
1.0
  9
$DISPSILH
 70
     0
  9
$DIMSCALE
 40
2.0
  9
$DIMASZ
 40
0.045
  9
$DIMEXO
 40
0.04
  9
$DIMDLI
 40
0.38
  9
$DIMRND
 40
0.001
  9
$DIMDLE
 40
0.0
  9
$DIMEXE
 40
0.04
  9
$DIMTP
 40
0.0
  9
$DIMTM
 40
0.0
  9
$DIMTXT
 40
0.045
  9
$DIMCEN
 40
0.0
  9
$DIMTSZ
 40
0.0
  9
$DIMTOL
 70
     0
  9
$DIMLIM
 70
     0
  9
$DIMTIH
 70
     1
  9
$DIMTOH
 70
     1
  9
$DIMSE1
 70
     0
  9
$DIMSE2
 70
     0
  9
$DIMTAD
 70
     0
  9
$DIMZIN
 70
     0
  9
$DIMBLK
  1

  9
$DIMASO
 70
     1
  9
$DIMSHO
 70
     1
  9
$DIMPOST
  1

  9
$DIMAPOST
  1

  9
$DIMALT
 70
     0
  9
$DIMALTD
 70
     2
  9
$DIMALTF
 40
25.4
  9
$DIMLFAC
 40
1.0
  9
$DIMTOFL
 70
     0
  9
$DIMTVP
 40
0.0
  9
$DIMTIX
 70
     0
  9
$DIMSOXD
 70
     0
  9
$DIMSAH
 70
     0
  9
$DIMBLK1
  1

  9
$DIMBLK2
  1

  9
$DIMSTYLE
  2
Standard
  9
$DIMCLRD
 70
     0
  9
$DIMCLRE
 70
     0
  9
$DIMCLRT
 70
     0
  9
$DIMTFAC
 40
0.4444444444444445
  9
$DIMGAP
 40
0.045
  9
$DIMJUST
 70
     0
  9
$DIMSD1
 70
     0
  9
$DIMSD2
 70
     0
  9
$DIMTOLJ
 70
     1
  9
$DIMTZIN
 70
     0
  9
$DIMALTZ
 70
     0
  9
$DIMALTTZ
 70
     0
  9
$DIMUPT
 70
     0
  9
$DIMDEC
 70
     3
  9
$DIMTDEC
 70
     3
  9
$DIMALTU
 70
     2
  9
$DIMALTTD
 70
     2
  9
$DIMTXSTY
  7
STANDARD
  9
$DIMAUNIT
 70
     0
  9
$DIMADEC
 70
     2
  9
$DIMALTRND
 40
0.0
  9
$DIMAZIN
 70
     0
  9
$DIMDSEP
 70
    46
  9
$DIMATFIT
 70
     3
  9
$DIMFRAC
 70
     0
  9
$DIMLDRBLK
  1

  9
$DIMLUNIT
 70
     2
  9
$DIMLWD
 70
    -2
  9
$DIMLWE
 70
    -2
  9
$DIMTMOVE
 70
     2
  9
$DIMFXL
 40
1.0
  9
$DIMFXLON
 70
     0
  9
$DIMJOGANG
 40
0.7853981633974483
  9
$DIMTFILL
 70
     0
  9
$DIMTFILLCLR
 70
     0
  9
$DIMARCSYM
 70
     1
  9
$DIMLTYPE
  6

  9
$DIMLTEX1
  6

  9
$DIMLTEX2
  6

  9
$DIMTXTDIRECTION
 70
     0
  9
$LUNITS
 70
     2
  9
$LUPREC
 70
     8
  9
$SKETCHINC
 40
0.1
  9
$FILLETRAD
 40
0.0
  9
$AUNITS
 70
     0
  9
$AUPREC
 70
     2
  9
$MENU
  1
TB
  9
$ELEVATION
 40
0.0
  9
$PELEVATION
 40
0.0
  9
$THICKNESS
 40
0.0
  9
$LIMCHECK
 70
     0
  9
$CHAMFERA
 40
0.0
  9
$CHAMFERB
 40
0.0
  9
$CHAMFERC
 40
0.0
  9
$CHAMFERD
 40
0.0
  9
$SKPOLY
 70
     0
  9
$TDCREATE
 40
2449349.554560185
  9
$TDUCREATE
 40
2449349.762902546
  9
$TDUPDATE
 40
2459264.425428241
  9
$TDUUPDATE
 40
2459264.633761574
  9
$TDINDWG
 40
0.5127344444
  9
$TDUSRTIMER
 40
0.5127344444
  9
$USRTIMER
 70
     1
  9
$ANGBASE
 50
0.0
  9
$ANGDIR
 70
     0
  9
$PDMODE
 70
     0
  9
$PDSIZE
 40
0.0
  9
$PLINEWID
 40
0.0
  9
$SPLFRAME
 70
     0
  9
$SPLINETYPE
 70
     6
  9
$SPLINESEGS
 70
     8
  9
$HANDSEED
  5
C90E73C08D47D651
  9
$SURFTAB1
 70
     6
  9
$SURFTAB2
 70
     6
  9
$SURFTYPE
 70
     6
  9
$SURFU
 70
     6
  9
$SURFV
 70
     6
  9
$UCSBASE
  2

  9
$UCSNAME
  2

  9
$UCSORG
 10
0.0
 20
0.0
 30
0.0
  9
$UCSXDIR
 10
1.0
 20
0.0
 30
0.0
  9
$UCSYDIR
 10
0.0
 20
1.0
 30
0.0
  9
$UCSORTHOREF
  2

  9
$UCSORTHOVIEW
 70
     0
  9
$UCSORGTOP
 10
0.0
 20
0.0
 30
0.0
  9
$UCSORGBOTTOM
 10
0.0
 20
0.0
 30
0.0
  9
$UCSORGLEFT
 10
0.0
 20
0.0
 30
0.0
  9
$UCSORGRIGHT
 10
0.0
 20
0.0
 30
0.0
  9
$UCSORGFRONT
 10
0.0
 20
0.0
 30
0.0
  9
$UCSORGBACK
 10
0.0
 20
0.0
 30
0.0
  9
$PUCSBASE
  2

  9
$PUCSNAME
  2

  9
$PUCSORG
 10
0.0
 20
0.0
 30
0.0
  9
$PUCSXDIR
 10
1.0
 20
0.0
 30
0.0
  9
$PUCSYDIR
 10
0.0
 20
1.0
 30
0.0
  9
$PUCSORTHOREF
  2

  9
$PUCSORTHOVIEW
 70
     0
  9
$PUCSORGTOP
 10
0.0
 20
0.0
 30
0.0
  9
$PUCSORGBOTTOM
 10
0.0
 20
0.0
 30
0.0
  9
$PUCSORGLEFT
 10
0.0
 20
0.0
 30
0.0
  9
$PUCSORGRIGHT
 10
0.0
 20
0.0
 30
0.0
  9
$PUCSORGFRONT
 10
0.0
 20
0.0
 30
0.0
  9
$PUCSORGBACK
 10
0.0
 20
0.0
 30
0.0
  9
$USERI1
 70
     0
  9
$USERI2
 70
     0
  9
$USERI3
 70
     0
  9
$USERI4
 70
     0
  9
$USERI5
 70
     0
  9
$USERR1
 40
0.0
  9
$USERR2
 40
0.0
  9
$USERR3
 40
0.0
  9
$USERR4
 40
0.0
  9
$USERR5
 40
0.0
  9
$WORLDVIEW
 70
     1
  9
$SHADEDGE
 70
     3
  9
$SHADEDIF
 70
    70
  9
$TILEMODE
 70
     1
  9
$MAXACTVP
 70
    16
  9
$PINSBASE
 10
0.0
 20
0.0
 30
0.0
  9
$PLIMCHECK
 70
     0
  9
$PEXTMIN
 10
1.000000000000000E+20
 20
1.000000000000000E+20
 30
1.000000000000000E+20
  9
$PEXTMAX
 10
-1.000000000000000E+20
 20
-1.000000000000000E+20
 30
-1.000000000000000E+20
  9
$PLIMMIN
 10
0.0
 20
0.0
  9
$PLIMMAX
 10
12.0
 20
9.0
  9
$UNITMODE
 70
     0
  9
$VISRETAIN
 70
     0
  9
$PLINEGEN
 70
     0
  9
$PSLTSCALE
 70
     1
  9
$TREEDEPTH
 70
  3020
  9
$CMLSTYLE
  2
Standard
  9
$CMLJUST
 70
     0
  9
$CMLSCALE
 40
1.0
  9
$PROXYGRAPHICS
 70
     1
  9
$MEASUREMENT
 70
     0
  9
$CELWEIGHT
370
    -1
  9
$ENDCAPS
280
     0
  9
$JOINSTYLE
280
     0
  9
$LWDISPLAY
290
     0
  9
$INSUNITS
 70
     0
  9
$HYPERLINKBASE
  1

  9
$STYLESHEET
  1
Harvey Std Plot Style.ctb
  9
$XEDIT
290
     1
  9
$CEPSNTYPE
380
     0
  9
$PSTYLEMODE
290
     1
  9
$FINGERPRINTGUID
  2
{7DE8E093-93FC-45BB-B7F5-592E7E0ED13B}
  9
$VERSIONGUID
  2
{5A30CEAA-0091-1A4F-91F1-377890386D84}
  9
$EXTNAMES
290
     1
  9
$PSVPSCALE
 40
0.0
  9
$OLESTARTUP
290
     0
  9
$SORTENTS
280
   127
  9
$INDEXCTL
280
     0
  9
$HIDETEXT
280
     1
  9
$XCLIPFRAME
280
     0
  9
$HALOGAP
280
     0
  9
$OBSCOLOR
 70
   257
  9
$OBSLTYPE
280
     0
  9
$INTERSECTIONDISPLAY
280
     0
  9
$INTERSECTIONCOLOR
 70
   257
  9
$DIMASSOC
280
     2
  9
$PROJECTNAME
  1

  9
$CAMERADISPLAY
290
     0
  9
$LENSLENGTH
 40
50.0
  9
$CAMERAHEIGHT
 40
0.0
  9
$STEPSPERSEC
 40
2.0
  9
$STEPSIZE
 40
6.0
  9
$3DDWFPREC
 40
2.0
  9
$PSOLWIDTH
 40
0.25
  9
$PSOLHEIGHT
 40
4.0
  9
$LOFTANG1
 40
1.570796326794896
  9
$LOFTANG2
 40
1.570796326794896
  9
$LOFTMAG1
 40
0.0
  9
$LOFTMAG2
 40
0.0
  9
$LOFTPARAM
 70
     7
  9
$LOFTNORMALS
280
     1
  9
$LATITUDE
 40
37.795
  9
$LONGITUDE
 40
-122.394
  9
$NORTHDIRECTION
 40
0.0
  9
$TIMEZONE
 70
 -8000
  9
$LIGHTGLYPHDISPLAY
280
     1
  9
$TILEMODELIGHTSYNCH
280
     1
  9
$CMATERIAL
347
C90E73C08D47D5C1
  9
$SOLIDHIST
280
     0
  9
$SHOWHIST
280
     1
  9
$DWFFRAME
280
     2
  9
$DGNFRAME
280
     0
  9
$REALWORLDSCALE
290
     1
  9
$INTERFERECOLOR
 62
     1
  9
$INTERFEREOBJVS
345
C90E73C08D47D5E3
  9
$INTERFEREVPVS
346
C90E73C08D47D5E0
  9
$CSHADOW
280
     0
  9
$SHADOWPLANELOCATION
 40
0.0
  0
ENDSEC
  0
SECTION
  2
CLASSES
  0
CLASS
  1
ACDBDICTIONARYWDFLT
  2
AcDbDictionaryWithDefault
  3
ObjectDBX Classes
 90
        0
 91
        1
280
     0
281
     0
  0
CLASS
  1
ACME_DOCUMENT
  2
AcMeDbDoc
  3
AcMeServices
 90
        0
 91
        0
280
     0
281
     0
  0
CLASS
  1
ACMESCOPE
  2
AcMeScope
  3
AcMeServices
 90
        0
 91
        2
280
     0
281
     0
  0
CLASS
  1
ACMECOMMANDHISTORY
  2
AcMeCommandHistory
  3
AcMeServices
 90
        0
 91
        2
280
     0
281
     0
  0
CLASS
  1
ACIMSYSVARMAN
  2
AcImSysVarManager
  3
AcMeServices
 90
        0
 91
        6
280
     0
281
     0
  0
CLASS
  1
ACIMINTSYSVAR
  2
AcImIntSysVar
  3
AcMeServices
 90
        0
 91
       27
280
     0
281
     0
  0
CLASS
  1
ACMEDRAWINGMAN
  2
AcMeDrawingMan
  3
AcMeServices
 90
        0
 91
        2
280
     0
281
     0
  0
CLASS
  1
ACMEVIEW
  2
AcMeView
  3
AcMeServices
 90
        0
 91
        2
280
     0
281
     0
  0
CLASS
  1
ACDBENTITYCACHE
  2
AcMeEntityCache
  3
AcMeServices
 90
        0
 91
        0
280
     0
281
     0
  0
CLASS
  1
GSMANAGER
  2
AcMeGSManager
  3
AcMeServices
 90
        0
 91
        0
280
     0
281
     0
  0
CLASS
  1
AMDTINTERNALREACTOR
  2
AmdtInternalReactor
  3
AcMeServices
 90
        0
 91
        0
280
     0
281
     0
  0
CLASS
  1
ACMESTATEMGR
  2
AcMeStateMgr
  3
AcMeServices
 90
        0
 91
        2
280
     0
281
     0
  0
CLASS
  1
ACGREFMASTER
  2
AcGrefMaster
  3
AcAttribServices
 90
        0
 91
        2
280
     0
281
     0
  0
CLASS
  1
AM_DRAWING_MGR
  2
AcDmDwgMgr
  3
AcMechDwgViewMgmt
 90
        0
 91
        2
280
     0
281
     0
  0
CLASS
  1
AM_DWG_DOCUMENT
  2
AcDmDwgDocument
  3
AcMechDwgViewMgmt
 90
        0
 91
        2
280
     0
281
     0
  0
CLASS
  1
AM_DWG_SHEET
  2
AcDmSheet
  3
AcMechDwgViewMgmt
 90
        0
 91
        2
280
     0
281
     0
  0
CLASS
  1
AM_VIEWDIMPARMAP
  2
AcDmViewDimParMap
  3
AcMechDwgViewMgmt
 90
        0
 91
        2
280
     0
281
     0
  0
CLASS
  1
ACIMREALSYSVAR
  2
AcImRealSysVar
  3
AcMeServices
 90
        0
 91
        2
280
     0
281
     0
  0
CLASS
  1
AM_DWGMGR_NAME
  2
AcDmDwgMgrName
  3
AcMechDwgViewMgmt
 90
        0
 91
        2
280
     0
281
     0
  0
CLASS
  1
ACME_DATABASE
  2
AcMeDbDatabase
  3
AcMeServices
 90
        0
 91
        0
280
     0
281
     0
  0
CLASS
  1
ACRFINSADJUSTERMGR
  2
AcRfInsAdjusterMgr
  3
AcMeServices
 90
        0
 91
        0
280
     0
281
     0
  0
CLASS
  1
ACGREFACADMASTER
  2
AcGrefacadMaster
  3
AcGrefServices
 90
        0
 91
        2
280
     0
281
     0
  0
CLASS
  1
AMDTMENUSTATEMGR
  2
AmdtMenuStateMgr
  3
McadcomServices
 90
        0
 91
        0
280
     0
281
     0
  0
CLASS
  1
AMDTMCOMMENUSTATE
  2
AmdtMcomMenuState
  3
McadcomServices
 90
        0
 91
        0
280
     0
281
     0
  0
CLASS
  1
AMIMASTER
  2
AmiMaster
  3
AmiServices
 90
        0
 91
        2
280
     0
281
     0
  0
CLASS
  1
AMGSETTINGSOBJ
  2
AmgSettingsObj
  3
"AcadM|Product Description: AutoCAD Mechanical 2000|Company: Autodesk"
 90
        0
 91
        5
280
     0
281
     0
  0
CLASS
  1
MAPIAMMOUDLE
  2
MApiAmModule
  3
MApiAmServices
 90
        0
 91
        2
280
     0
281
     0
  0
CLASS
  1
AMDTADMENUSTATE
  2
AmdtAdMenuState
  3
DesignerServices
 90
        0
 91
        0
280
     0
281
     0
  0
CLASS
  1
ADAPPL
  2
AcAdAppl
  3
DesignerServices
 90
        0
 91
        2
280
     0
281
     0
  0
CLASS
  1
DEPMGR
  2
AcAdDepMgr
  3
DesignerServices
 90
        0
 91
        2
280
     0
281
     0
  0
CLASS
  1
PARAMMGR
  2
AcAdParamMgr
  3
DesignerServices
 90
        0
 91
        2
280
     0
281
     0
  0
CLASS
  1
PARAMSCOPE
  2
AcAdParamScope
  3
DesignerServices
 90
        0
 91
        2
280
     0
281
     0
  0
CLASS
  1
NAMEDAPPL
  2
AcAdNamedAppl
  3
DesignerServices
 90
        0
 91
        2
280
     0
281
     0
  0
CLASS
  1
AMDTDMMENUSTATE
  2
AmdtDmMenuState
  3
AcMechDwgViewMgmt
 90
        0
 91
        0
280
     0
281
     0
  0
CLASS
  1
AMDTAMMENUSTATE
  2
AmdtAmMenuState
  3
DesignerAssemblies
 90
        0
 91
        0
280
     0
281
     0
  0
CLASS
  1
ACIMSTRSYSVAR
  2
AcImStrSysVar
  3
AcMeServices
 90
        0
 91
        6
280
     0
281
     0
  0
CLASS
  1
ACAMPROJECT
  2
AcAmProject
  3
DesignerAssemblies
 90
        0
 91
        2
280
     0
281
     0
  0
CLASS
  1
ACAMGRCOMPDEF
  2
AcAmGrCompDef
  3
DesignerAssemblies
 90
        0
 91
        2
280
     0
281
     0
  0
CLASS
  1
ACCMCONTEXT
  2
AcCmContext
  3
DesignerAssemblies
 90
        0
 91
        2
280
     0
281
     0
  0
CLASS
  1
ACAMCOMPDEF
  2
AcAmCompDef
  3
DesignerAssemblies
 90
        0
 91
        2
280
     0
281
     0
  0
CLASS
  1
ACAMCOMPDEFMGR
  2
AcAmCompDefMgr
  3
DesignerAssemblies
 90
        0
 91
        2
280
     0
281
     0
  0
CLASS
  1
AMCONTEXTMGR
  2
AcAmContextMgr
  3
DesignerAssemblies
 90
        0
 91
        2
280
     0
281
     0
  0
CLASS
  1
ACAMCONTEXTMODELER
  2
AcAmContextModeler
  3
DesignerAssemblies
 90
        0
 91
        2
280
     0
281
     0
  0
CLASS
  1
ACMDATADICTIONARY
  2
AcmDataDictionary
  3
"AcmSymBB|Product Description: AutoCAD Mechanical 2004 DX|Company: Autodesk"
 90
        0
 91
        2
280
     0
281
     0
  0
CLASS
  1
CATALOGSTATE
  2
AcAmCatalogState
  3
DesignerAssemblies
 90
        0
 91
        2
280
     0
281
     0
  0
CLASS
  1
ACAMGRCOMPDEFSET
  2
AcAmGrCompDefSet
  3
DesignerAssemblies
 90
        0
 91
        0
280
     0
281
     0
  0
CLASS
  1
AMDTBROWSERDBTAB
  2
AmdtBrowserDbTab
  3
McadcomServices
 90
        0
 91
        0
280
     0
281
     0
  0
CLASS
  1
CBROWSERAPPOBJECT
  2
CBrowserAppObject
  3
McadcomServices
 90
        0
 91
        0
280
     0
281
     0
  0
CLASS
  1
DM_PLACEHOLDER
  2
AcDmSelsetPlaceholder
  3
AcMechDwgViewMgmt
 90
        0
 91
        0
280
     0
281
     0
  0
CLASS
  1
ACMSTANDARDANSI
  2
AcmStandardANSI
  3
"Amdt_StdImp|Product Description: AutoCAD Mechanical 2004 DX|Company: Autodesk"
 90
        0
 91
        2
280
     0
281
     0
  0
CLASS
  1
AMGOBJPROPCFG
  2
AmgObjPropCfg
  3
"AmgLay|Product Description: AutoCAD Mechanical 2000|Company: Autodesk"
 90
        1
 91
        2
280
     0
281
     0
  0
CLASS
  1
ACMSURFSTANDARDANSI
  2
AcmSurfTextStdANSI
  3
"Amdt_StdImp|Product Description: AutoCAD Mechanical 2004 DX|Company: Autodesk"
 90
        0
 91
        2
280
     0
281
     0
  0
CLASS
  1
ACMFCFSTANDARDANSI
  2
AcmFCFStdANSI
  3
"Amdt_StdImp|Product Description: AutoCAD Mechanical 2004 DX|Company: Autodesk"
 90
        0
 91
        2
280
     0
281
     0
  0
CLASS
  1
ACMWELDSTANDARDANSI
  2
AcmWeldingStdANSI
  3
"Amdt_StdImp|Product Description: AutoCAD Mechanical 2004 DX|Company: Autodesk"
 90
        0
 91
        2
280
     0
281
     0
  0
CLASS
  1
ACMIDSTANDARDANSI
  2
AcmIdStdANSI
  3
"Amdt_StdImp|Product Description: AutoCAD Mechanical 2004 DX|Company: Autodesk"
 90
        0
 91
        2
280
     0
281
     0
  0
CLASS
  1
ACMDATUMSTANDARDANSI
  2
AcmDatumStdANSI
  3
"Amdt_StdImp|Product Description: AutoCAD Mechanical 2004 DX|Company: Autodesk"
 90
        0
 91
        2
280
     0
281
     0
  0
CLASS
  1
ACMBOMSTANDARDANSI
  2
AcmBOMStdANSI
  3
"Amdt_StdImp|Product Description: AutoCAD Mechanical 2004 DX|Company: Autodesk"
 90
        0
 91
        2
280
     0
281
     0
  0
CLASS
  1
ACMDETAILSTANDARDANSI
  2
AmdtDetailSymStdANSI
  3
"Amdt_StdImp|Product Description: AutoCAD Mechanical 2004 DX|Company: Autodesk"
 90
        0
 91
        2
280
     0
281
     0
  0
CLASS
  1
ACMSECTIONSTANDARDANSI
  2
AmdtSectionSymStdANSI
  3
"Amdt_StdImp|Product Description: AutoCAD Mechanical 2004 DX|Company: Autodesk"
 90
        0
 91
        2
280
     0
281
     0
  0
CLASS
  1
ACMCENTERLINESTANDARDANSI
  2
AmdtCenterLineStdANSI
  3
"Amdt_StdImp|Product Description: AutoCAD Mechanical 2004 DX|Company: Autodesk"
 90
        0
 91
        2
280
     0
281
     0
  0
CLASS
  1
ACMTHREADLINESTANDARDANSI
  2
AmdtThreadLineStdANSI
  3
"Amdt_StdImp|Product Description: AutoCAD Mechanical 2004 DX|Company: Autodesk"
 90
        0
 91
        2
280
     0
281
     0
  0
CLASS
  1
ACMNOTESTANDARDANSI
  2
AmdtNoteStdANSI
  3
"Amdt_StdImp|Product Description: AutoCAD Mechanical 2004 DX|Company: Autodesk"
 90
        0
 91
        2
280
     0
281
     0
  0
CLASS
  1
AMDTNOTETEMPLATEDB
  2
AmdtNoteTemplateDB
  3
AMDT_STDIMP_MODULE_NAME
 90
        0
 91
        5
280
     0
281
     0
  0
CLASS
  1
ACAMGLAYSTD
  2
AcAmgLayStd
  3
"AcAmgLayStd|Product Description: AutoCAD Mechanical 2000|Company: Autodesk"
 90
        0
 91
        2
280
     0
281
     0
  0
CLASS
  1
ACAMGDIMSTD
  2
AcAmgDimStd
  3
"AcAmgDimStd|Product Description: AutoCAD Mechanical 2000|Company: Autodesk"
 90
        0
 91
        2
280
     0
281
     0
  0
CLASS
  1
ACAMGHOLECHARTSTDANSI
  2
AcAmgHoleChartStdANSI
  3
ACMSYMBB_MODULE_NAME
 90
        0
 91
        2
280
     0
281
     0
  0
CLASS
  1
ACAMGTITLESTD
  2
AcAmgTitleStd
  3
"TITLEAPP"
 90
        0
 91
        2
280
     0
281
     0
  0
CLASS
  1
ACAMGFILTERDAT
  2
AcAmgFilterDat
  3
"AcadM|Product Description: AutoCAD Mechanical 2000|Company: Autodesk"
 90
        0
 91
        7
280
     0
281
     0
  0
CLASS
  1
LAYER_INDEX
  2
AcDbLayerIndex
  3
ObjectDBX Classes
 90
        0
 91
        0
280
     0
281
     0
  0
CLASS
  1
IDBUFFER
  2
AcDbIdBuffer
  3
ObjectDBX Classes
 90
        0
 91
        0
280
     0
281
     0
  0
CLASS
  1
TABLESTYLE
  2
AcDbTableStyle
  3
ObjectDBX Classes
 90
     4095
 91
        1
280
     0
281
     0
  0
CLASS
  1
DICTIONARYVAR
  2
AcDbDictionaryVar
  3
ObjectDBX Classes
 90
        0
 91
        9
280
     0
281
     0
  0
CLASS
  1
SORTENTSTABLE
  2
AcDbSortentsTable
  3
ObjectDBX Classes
 90
        0
 91
        4
280
     0
281
     0
  0
CLASS
  1
ACMDATAENTRYBLOCK
  2
AcmDataEntryBlock
  3
"AcmSymBB|Product Description: AutoCAD Mechanical 2004 DX|Company: Autodesk"
 90
        0
 91
        0
280
     0
281
     0
  0
CLASS
  1
MTV_DERIVED_OBJECT
  2
CMtvAcDerivedObject
  3
MTV_ADME_ARX
 90
     1023
 91
        5
280
     0
281
     0
  0
CLASS
  1
DIMASSOC
  2
AcDbDimAssoc
  3
"AcDbDimAssoc|Product Desc:     AcDim ARX App For Dimension|Company:          Autodesk, Inc.|WEB Address:      www.autodesk.com"
 90
        0
 91
        0
280
     0
281
     0
  0
CLASS
  1
MATERIAL
  2
AcDbMaterial
  3
ObjectDBX Classes
 90
     1153
 91
        3
280
     0
281
     0
  0
CLASS
  1
VISUALSTYLE
  2
AcDbVisualStyle
  3
ObjectDBX Classes
 90
     4095
 91
       24
280
     0
281
     0
  0
CLASS
  1
SCALE
  2
AcDbScale
  3
ObjectDBX Classes
 90
     1153
 91
       17
280
     0
281
     0
  0
CLASS
  1
MLEADERSTYLE
  2
AcDbMLeaderStyle
  3
ACDB_MLEADERSTYLE_CLASS
 90
     4095
 91
        1
280
     0
281
     0
  0
CLASS
  1
ACDBSECTIONVIEWSTYLE
  2
AcDbSectionViewStyle
  3
ObjectDBX Classes
 90
     1025
 91
        1
280
     0
281
     0
  0
CLASS
  1
ACDBDETAILVIEWSTYLE
  2
AcDbDetailViewStyle
  3
ObjectDBX Classes
 90
     1025
 91
        1
280
     0
281
     0
  0
CLASS
  1
CELLSTYLEMAP
  2
AcDbCellStyleMap
  3
ObjectDBX Classes
 90
     1152
 91
        1
280
     0
281
     0
  0
ENDSEC
  0
SECTION
  2
TABLES
  0
TABLE
  2
VPORT
  5
C90E73C08D47C61F
330
0
100
AcDbSymbolTable
 70
     1
  0
VPORT
  5
C90E73C08D47D5BF
330
C90E73C08D47C61F
100
AcDbSymbolTableRecord
100
AcDbViewportTableRecord
  2
*Active
 70
     0
 10
0.0
 20
0.0
 11
1.0
 21
1.0
 12
20.20120208191887
 22
12.06529317407725
 13
0.0
 23
0.0
 14
0.125
 24
0.125
 15
1.0
 25
1.0
 16
0.0
 26
0.0
 36
1.0
 17
0.0
 27
0.0
 37
0.0
 40
22.27404507698286
 41
2.292712066905615
 42
50.0
 43
0.0
 44
0.0
 50
0.0
 51
0.0
 71
     0
 72
 20000
 73
     1
 74
     3
 75
     0
 76
     0
 77
     0
 78
     0
281
     0
 65
     0
110
0.0
120
0.0
130
0.0
111
1.0
121
0.0
131
0.0
112
0.0
122
1.0
132
0.0
 79
     0
146
0.0
348
C90E73C08D47D5DF
 60
     3
 61
     5
292
     1
282
     1
141
0.0
142
0.0
 63
   250
421
  3355443
1001
ACAD_NAV_VCDISPLAY
1070
     3
  0
ENDTAB
  0
TABLE
  2
LTYPE
  5
C90E73C08D47C61C
330
0
100
AcDbSymbolTable
 70
    11
  0
LTYPE
  5
C90E73C08D47C62A
330
C90E73C08D47C61C
100
AcDbSymbolTableRecord
100
AcDbLinetypeTableRecord
  2
ByBlock
 70
     0
  3

 72
    65
 73
     0
 40
0.0
  0
LTYPE
  5
C90E73C08D47C62B
330
C90E73C08D47C61C
100
AcDbSymbolTableRecord
100
AcDbLinetypeTableRecord
  2
ByLayer
 70
     0
  3

 72
    65
 73
     0
 40
0.0
  0
LTYPE
  5
C90E73C08D47C62C
330
C90E73C08D47C61C
100
AcDbSymbolTableRecord
100
AcDbLinetypeTableRecord
  2
CONTINUOUS
 70
     0
  3
Solid line
 72
    65
 73
     0
 40
0.0
  0
LTYPE
  5
C90E73C08D47C651
330
C90E73C08D47C61C
100
AcDbSymbolTableRecord
100
AcDbLinetypeTableRecord
  2
CENTER
 70
     0
  3
____ _ ____ _ ____ _ ____ _ ____ _ ____ _ ____
 72
    65
 73
     4
 40
2.0
 49
1.25
 74
     0
 49
-0.25
 74
     0
 49
0.25
 74
     0
 49
-0.25
 74
     0
  0
LTYPE
  5
C90E73C08D47C657
330
C90E73C08D47C61C
100
AcDbSymbolTableRecord
100
AcDbLinetypeTableRecord
  2
HIDDEN
 70
     0
  3
_ _ _ _ _ _ _ _ _ _ _ _ _ _ _ _ _ _ _ _ _ _ _
 72
    65
 73
     2
 40
0.375
 49
0.25
 74
     0
 49
-0.125
 74
     0
  0
LTYPE
  5
C90E73C08D47C695
330
C90E73C08D47C61C
100
AcDbSymbolTableRecord
100
AcDbLinetypeTableRecord
  2
PHANTOM2
 70
     0
  3
Phantom (.5x) ___ _ _ ___ _ _ ___ _ _ ___ _ _
 72
    65
 73
     6
 40
1.25
 49
0.625
 74
     0
 49
-0.125
 74
     0
 49
0.125
 74
     0
 49
-0.125
 74
     0
 49
0.125
 74
     0
 49
-0.125
 74
     0
  0
LTYPE
  5
C90E73C08D47C6E3
330
C90E73C08D47C61C
100
AcDbSymbolTableRecord
100
AcDbLinetypeTableRecord
  2
Amconstr
 70
     0
  3
_______________________
 72
    65
 73
     2
 40
9999.0
 49
9999.0
 74
     0
 49
0.0
 74
     0
  0
LTYPE
  5
C90E73C08D47C6E9
330
C90E73C08D47C61C
100
AcDbSymbolTableRecord
100
AcDbLinetypeTableRecord
  2
CENTER2
 70
     0
  3
Center (.5x) ___ _ ___ _ ___ _ ___ _ ___ _ ___
 72
    65
 73
     4
 40
1.125
 49
0.75
 74
     0
 49
-0.125
 74
     0
 49
0.125
 74
     0
 49
-0.125
 74
     0
  0
LTYPE
  5
C90E73C08D47C6EA
330
C90E73C08D47C61C
100
AcDbSymbolTableRecord
100
AcDbLinetypeTableRecord
  2
HIDDEN2
 70
     0
  3
Hidden (.5x) _ _ _ _ _ _ _ _ _ _ _ _ _ _ _ _ _
 72
    65
 73
     2
 40
0.1875
 49
0.125
 74
     0
 49
-0.0625
 74
     0
  0
LTYPE
  5
C90E73C08D47C6EB
330
C90E73C08D47C61C
100
AcDbSymbolTableRecord
100
AcDbLinetypeTableRecord
  2
Amzigzag2
 70
     0
  3
/\/-/\/-/\/-/\/-/\/-/\/
 72
    65
 73
     2
 40
0.4401
 49
0.0001
 74
     4
 75
   135
340
C90E73C08D47C6E7
 46
0.0016
 50
0.0
 44
0.0
 45
0.0
 49
-0.4400000000000001
 74
     0
  0
LTYPE
  5
C90E73C08D47C6F9
330
C90E73C08D47C61C
100
AcDbSymbolTableRecord
100
AcDbLinetypeTableRecord
  2
ACANSTGB
 70
     0
  3
__ . . __ . .
 72
    65
 73
     6
 40
0.35433070866
 49
0.15748031496
 74
     0
 49
-0.03937007874
 74
     0
 49
0.03937007874
 74
     0
 49
-0.03937007874
 74
     0
 49
0.03937007874
 74
     0
 49
-0.03937007874
 74
     0
  0
LTYPE
  5
C90E73C08D47C6FA
330
C90E73C08D47C61C
100
AcDbSymbolTableRecord
100
AcDbLinetypeTableRecord
  2
ACANSTGL
 70
     0
  3
_ _ _ _ _
 72
    65
 73
     2
 40
0.11811023622
 49
0.07874015748
 74
     0
 49
-0.03937007874
 74
     0
  0
LTYPE
  5
C90E73C08D47D284
330
C90E73C08D47C61C
100
AcDbSymbolTableRecord
100
AcDbLinetypeTableRecord
  2
DOT2
 70
     0
  3
...............................................
 72
    65
 73
     2
 40
0.125
 49
0.0
 74
     0
 49
-0.125
 74
     0
  0
ENDTAB
  0
TABLE
  2
LAYER
  5
C90E73C08D47C619
102
{ACAD_XDICTIONARY
360
C90E73C08D47C728
102
}
330
0
100
AcDbSymbolTable
 70
    16
  0
LAYER
  5
C90E73C08D47C627
102
{ACAD_XDICTIONARY
360
C90E73C08D47D616
102
}
330
C90E73C08D47C619
100
AcDbSymbolTableRecord
100
AcDbLayerTableRecord
  2
0
 70
     0
 62
    31
  6
CONTINUOUS
370
    -3
390
C90E73C08D47C626
347
C90E73C08D47D5D1
348
0
  0
LAYER
  5
C90E73C08D47C65C
102
{ACAD_XDICTIONARY
360
C90E73C08D47D618
102
}
330
C90E73C08D47C619
100
AcDbSymbolTableRecord
100
AcDbLayerTableRecord
  2
ADCADD_FRZ
 70
     1
 62
     7
  6
CONTINUOUS
370
    -3
390
C90E73C08D47C626
347
C90E73C08D47D5D1
348
0
  0
LAYER
  5
C90E73C08D47C660
102
{ACAD_XDICTIONARY
360
C90E73C08D47D61A
102
}
330
C90E73C08D47C619
100
AcDbSymbolTableRecord
100
AcDbLayerTableRecord
  2
3
 70
     0
 62
     3
  6
CONTINUOUS
370
    -3
390
C90E73C08D47C626
347
C90E73C08D47D5D1
348
0
  0
LAYER
  5
C90E73C08D47C663
102
{ACAD_XDICTIONARY
360
C90E73C08D47D61C
102
}
330
C90E73C08D47C619
100
AcDbSymbolTableRecord
100
AcDbLayerTableRecord
  2
THIN
 70
     0
 62
     9
  6
CONTINUOUS
370
    -3
390
C90E73C08D47C626
347
C90E73C08D47D5D1
348
0
  0
LAYER
  5
C90E73C08D47C664
102
{ACAD_XDICTIONARY
360
C90E73C08D47D61E
102
}
330
C90E73C08D47C619
100
AcDbSymbolTableRecord
100
AcDbLayerTableRecord
  2
ZPAPER
 70
     0
 62
   150
  6
CONTINUOUS
370
    -3
390
C90E73C08D47C626
347
C90E73C08D47D5D1
348
0
  0
LAYER
  5
C90E73C08D47C665
102
{ACAD_XDICTIONARY
360
C90E73C08D47D620
102
}
330
C90E73C08D47C619
100
AcDbSymbolTableRecord
100
AcDbLayerTableRecord
  2
DIM
 70
     0
 62
     7
  6
CONTINUOUS
370
    -3
390
C90E73C08D47C626
347
C90E73C08D47D5D1
348
0
  0
LAYER
  5
C90E73C08D47C666
102
{ACAD_XDICTIONARY
360
C90E73C08D47D622
102
}
330
C90E73C08D47C619
100
AcDbSymbolTableRecord
100
AcDbLayerTableRecord
  2
CYAN
 70
     0
 62
     4
  6
CONTINUOUS
370
    -3
390
C90E73C08D47C626
347
C90E73C08D47D5D1
348
0
  0
LAYER
  5
C90E73C08D47C66F
102
{ACAD_XDICTIONARY
360
C90E73C08D47D624
102
}
330
C90E73C08D47C619
100
AcDbSymbolTableRecord
100
AcDbLayerTableRecord
  2
10
 70
     0
 62
     9
  6
CONTINUOUS
370
    -3
390
C90E73C08D47C626
347
C90E73C08D47D5D1
348
0
  0
LAYER
  5
C90E73C08D47C723
102
{ACAD_XDICTIONARY
360
C90E73C08D47D626
102
}
330
C90E73C08D47C619
100
AcDbSymbolTableRecord
100
AcDbLayerTableRecord
  2
vent
 70
     0
 62
     7
  6
CONTINUOUS
370
    -3
390
C90E73C08D47C626
347
C90E73C08D47D5D1
348
0
  0
LAYER
  5
C90E73C08D47C724
102
{ACAD_XDICTIONARY
360
C90E73C08D47D628
102
}
330
C90E73C08D47C619
100
AcDbSymbolTableRecord
100
AcDbLayerTableRecord
  2
2
 70
     0
 62
     2
  6
CONTINUOUS
370
    -3
390
C90E73C08D47C626
347
C90E73C08D47D5D1
348
0
  0
LAYER
  5
C90E73C08D47D285
102
{ACAD_XDICTIONARY
360
C90E73C08D47D62A
102
}
330
C90E73C08D47C619
100
AcDbSymbolTableRecord
100
AcDbLayerTableRecord
  2
MED
 70
     0
 62
   241
  6
CONTINUOUS
370
    -3
390
C90E73C08D47C626
347
C90E73C08D47D5D1
348
0
  0
LAYER
  5
C90E73C08D47D286
102
{ACAD_XDICTIONARY
360
C90E73C08D47D62C
102
}
330
C90E73C08D47C619
100
AcDbSymbolTableRecord
100
AcDbLayerTableRecord
  2
HIDDEN
 70
     0
 62
     1
  6
HIDDEN2
370
    -3
390
C90E73C08D47C626
347
C90E73C08D47D5D1
348
0
  0
LAYER
  5
C90E73C08D47D287
102
{ACAD_XDICTIONARY
360
C90E73C08D47D62E
102
}
330
C90E73C08D47C619
100
AcDbSymbolTableRecord
100
AcDbLayerTableRecord
  2
CENTER
 70
     0
 62
     3
  6
CENTER2
370
    -3
390
C90E73C08D47C626
347
C90E73C08D47D5D1
348
0
  0
LAYER
  5
C90E73C08D47D288
330
C90E73C08D47C619
100
AcDbSymbolTableRecord
100
AcDbLayerTableRecord
  2
DEFPOINTS
 70
     0
 62
     7
  6
CONTINUOUS
290
     0
370
    -3
390
C90E73C08D47C626
347
C90E73C08D47D5D1
348
0
  0
LAYER
  5
C90E73C08D47D2F1
102
{ACAD_XDICTIONARY
360
C90E73C08D47D630
102
}
330
C90E73C08D47C619
100
AcDbSymbolTableRecord
100
AcDbLayerTableRecord
  2
AM_CL
 70
     0
 62
     1
  6
Amconstr
370
    15
390
C90E73C08D47C626
347
C90E73C08D47D5D1
348
0
1001
AcAecLayerStandard
1000

1000

  0
LAYER
  5
C90E73C08D47D3C0
102
{ACAD_XDICTIONARY
360
C90E73C08D47D632
102
}
330
C90E73C08D47C619
100
AcDbSymbolTableRecord
100
AcDbLayerTableRecord
  2
paper
 70
     0
 62
     6
  6
CONTINUOUS
290
     0
370
    -3
390
C90E73C08D47C626
347
C90E73C08D47D5D1
348
0
  0
ENDTAB
  0
TABLE
  2
STYLE
  5
C90E73C08D47C61A
330
0
100
AcDbSymbolTable
 70
     7
  0
STYLE
  5
C90E73C08D47C628
330
C90E73C08D47C61A
100
AcDbSymbolTableRecord
100
AcDbTextStyleTableRecord
  2
STANDARD
 70
     0
 40
0.0
 41
1.0
 50
0.0
 71
     0
 42
0.2
  3
txt
  4

  0
STYLE
  5
C90E73C08D47C643
330
C90E73C08D47C61A
100
AcDbSymbolTableRecord
100
AcDbTextStyleTableRecord
  2
ROMANS
 70
     0
 40
0.0
 41
1.0
 50
10.0
 71
     0
 42
0.1
  3
romans
  4

  0
STYLE
  5
C90E73C08D47C6E7
330
C90E73C08D47C61A
100
AcDbSymbolTableRecord
100
AcDbTextStyleTableRecord
  2

 70
     1
 40
0.0
 41
1.0
 50
0.0
 71
     0
 42
0.1
  3
ltypeshp.shx
  4

  0
STYLE
  5
C90E73C08D47C6EC
330
C90E73C08D47C61A
100
AcDbSymbolTableRecord
100
AcDbTextStyleTableRecord
  2
ACANSTS
 70
     0
 40
1.0
 41
1.0
 50
0.0
 71
     0
 42
0.1
  3
romans.shx
  4

  0
STYLE
  5
C90E73C08D47C6F8
330
C90E73C08D47C61A
100
AcDbSymbolTableRecord
100
AcDbTextStyleTableRecord
  2
ACANSGDT
 70
     0
 40
0.0
 41
1.0
 50
0.0
 71
     0
 42
0.1
  3
amgdtans.shx
  4

  0
STYLE
  5
C90E73C08D47C725
330
C90E73C08D47C61A
100
AcDbSymbolTableRecord
100
AcDbTextStyleTableRecord
  2
TAHOMA
 70
     0
 40
0.0
 41
1.0
 50
0.0
 71
     0
 42
0.045
  3
tahoma.ttf
  4

1001
ACAD
1000
Tahoma
1071
       34
  0
STYLE
  5
C90E73C08D47D362
330
C90E73C08D47C61A
100
AcDbSymbolTableRecord
100
AcDbTextStyleTableRecord
  2

 70
     1
 40
0.0
 41
1.0
 50
0.0
 71
     0
 42
0.08
  3
genltshp.shx
  4

  0
ENDTAB
  0
TABLE
  2
VIEW
  5
C90E73C08D47C61D
330
0
100
AcDbSymbolTable
 70
     1
  0
VIEW
  5
C90E73C08D47C658
330
C90E73C08D47C61D
100
AcDbSymbolTableRecord
100
AcDbViewTableRecord
  2
OLE1
 70
     0
 40
5.004887585532746
 10
4.0
 20
2.502443792766373
 41
8.0
 11
0.0
 21
0.0
 31
1.0
 12
0.0
 22
0.0
 32
0.0
 42
50.0
 43
0.0
 44
0.0
 50
0.0
 71
     0
281
     0
 72
     0
 73
     0
348
C90E73C08D47D5DF
  0
ENDTAB
  0
TABLE
  2
UCS
  5
C90E73C08D47C61E
330
0
100
AcDbSymbolTable
 70
     0
  0
ENDTAB
  0
TABLE
  2
APPID
  5
C90E73C08D47C620
330
0
100
AcDbSymbolTable
 70
    23
  0
APPID
  5
C90E73C08D47C629
330
C90E73C08D47C620
100
AcDbSymbolTableRecord
100
AcDbRegAppTableRecord
  2
ACAD
 70
     0
  0
APPID
  5
C90E73C08D47C65B
330
C90E73C08D47C620
100
AcDbSymbolTableRecord
100
AcDbRegAppTableRecord
  2
TB_S_MPD
 70
     0
  0
APPID
  5
C90E73C08D47C67B
330
C90E73C08D47C620
100
AcDbSymbolTableRecord
100
AcDbRegAppTableRecord
  2
MCAD_NO_VIS
 70
     0
  0
APPID
  5
C90E73C08D47C67C
330
C90E73C08D47C620
100
AcDbSymbolTableRecord
100
AcDbRegAppTableRecord
  2
ACAD_TEMP_GRAPHIC
 70
     0
  0
APPID
  5
C90E73C08D47C6AA
330
C90E73C08D47C620
100
AcDbSymbolTableRecord
100
AcDbRegAppTableRecord
  2
AD_DRAW
 70
     0
  0
APPID
  5
C90E73C08D47C6AD
330
C90E73C08D47C620
100
AcDbSymbolTableRecord
100
AcDbRegAppTableRecord
  2
ACATTRIBSERVICES
 70
     0
  0
APPID
  5
C90E73C08D47C6CF
330
C90E73C08D47C620
100
AcDbSymbolTableRecord
100
AcDbRegAppTableRecord
  2
DESIGNERASSEMBLIES
 70
     0
  0
APPID
  5
C90E73C08D47C6D5
330
C90E73C08D47C620
100
AcDbSymbolTableRecord
100
AcDbRegAppTableRecord
  2
ACADM_DIM_EDIT
 70
     0
  0
APPID
  5
C90E73C08D47C6D6
330
C90E73C08D47C620
100
AcDbSymbolTableRecord
100
AcDbRegAppTableRecord
  2
AMDT_DM_ADJ
 70
     0
  0
APPID
  5
C90E73C08D47C727
330
C90E73C08D47C620
100
AcDbSymbolTableRecord
100
AcDbRegAppTableRecord
  2
MTVPROFILELINK
 70
     0
  0
APPID
  5
C90E73C08D47CB00
330
C90E73C08D47C620
100
AcDbSymbolTableRecord
100
AcDbRegAppTableRecord
  2
ADMEPROFILELINK
 70
     0
  0
APPID
  5
C90E73C08D47CD42
330
C90E73C08D47C620
100
AcDbSymbolTableRecord
100
AcDbRegAppTableRecord
  2
ACAD_DSTYLE_DIMARC_LENGTH_SYMBOL
 70
     0
  0
APPID
  5
C90E73C08D47CD43
330
C90E73C08D47C620
100
AcDbSymbolTableRecord
100
AcDbRegAppTableRecord
  2
ACAD_DSTYLE_DIMJOGGED_JOGANGLE_SYMBOL
 70
     0
  0
APPID
  5
C90E73C08D47CD64
330
C90E73C08D47C620
100
AcDbSymbolTableRecord
100
AcDbRegAppTableRecord
  2
AcAecLayerStandard
 70
     0
  0
APPID
  5
C90E73C08D47D305
330
C90E73C08D47C620
100
AcDbSymbolTableRecord
100
AcDbRegAppTableRecord
  2
GENIUS_GENREC_14
 70
     0
  0
APPID
  5
C90E73C08D47D306
330
C90E73C08D47C620
100
AcDbSymbolTableRecord
100
AcDbRegAppTableRecord
  2
GENIUS_GENODEF_13
 70
     0
  0
APPID
  5
C90E73C08D47D307
330
C90E73C08D47C620
100
AcDbSymbolTableRecord
100
AcDbRegAppTableRecord
  2
GENIUS_GENOBJ-N-REC_13
 70
     0
  0
APPID
  5
C90E73C08D47D3AA
330
C90E73C08D47C620
100
AcDbSymbolTableRecord
100
AcDbRegAppTableRecord
  2
ACAD_PSEXT
 70
     0
  0
APPID
  5
C90E73C08D47D3C1
330
C90E73C08D47C620
100
AcDbSymbolTableRecord
100
AcDbRegAppTableRecord
  2
RAK
 70
     0
  0
APPID
  5
C90E73C08D47D3C2
330
C90E73C08D47C620
100
AcDbSymbolTableRecord
100
AcDbRegAppTableRecord
  2
ACDBBLOCKREPETAG
 70
     0
  0
APPID
  5
C90E73C08D47D3C3
330
C90E73C08D47C620
100
AcDbSymbolTableRecord
100
AcDbRegAppTableRecord
  2
ACAD_EXEMPT_FROM_CAD_STANDARDS
 70
     0
  0
APPID
  5
C90E73C08D47D3C4
330
C90E73C08D47C620
100
AcDbSymbolTableRecord
100
AcDbRegAppTableRecord
  2
GENIUS_GENDTOL_13
 70
     0
  0
APPID
  5
C90E73C08D47D63B
330
C90E73C08D47C620
100
AcDbSymbolTableRecord
100
AcDbRegAppTableRecord
  2
ACAD_NAV_VCDISPLAY
 70
     0
  0
ENDTAB
  0
TABLE
  2
DIMSTYLE
  5
C90E73C08D47C621
330
0
100
AcDbSymbolTable
 70
    10
100
AcDbDimStyleTable
 71
     1
340
C90E73C08D47C678
  0
DIMSTYLE
105
C90E73C08D47C678
330
C90E73C08D47C621
100
AcDbSymbolTableRecord
100
AcDbDimStyleTableRecord
  2
Standard
 70
     0
340
C90E73C08D47C628
  0
DIMSTYLE
105
C90E73C08D47C701
330
C90E73C08D47C621
100
AcDbSymbolTableRecord
100
AcDbDimStyleTableRecord
  2
AM_ANSI
 70
     0
  4
mm
 41
0.1
 42
0.05
 43
0.5
 44
0.1
 47
0.1
 48
0.1
 78
     7
 79
     2
 90
     1
140
0.12
141
0.0
146
0.71
147
0.06
176
   256
177
   256
178
     2
274
     4
284
     7
340
C90E73C08D47C628
371
    -1
372
    -1
1001
ACAD_DSTYLE_DIMJOGGED_JOGANGLE_SYMBOL
1070
   384
1040
0.7853981633974483
  0
DIMSTYLE
105
C90E73C08D47C702
330
C90E73C08D47C621
100
AcDbSymbolTableRecord
100
AcDbDimStyleTableRecord
  2
AM_ANSI$3
 70
     0
  4
mm
 41
0.1
 42
0.05
 43
0.5
 44
0.1
 47
0.1
 48
0.1
 78
     7
 79
     2
 90
     1
140
0.12
141
0.0
146
0.71
147
0.06
176
   256
177
   256
178
     2
274
     4
284
     7
288
     1
289
     0
340
C90E73C08D47C628
371
    -1
372
    -1
1001
ACAD_DSTYLE_DIMJOGGED_JOGANGLE_SYMBOL
1070
   384
1040
0.7853981633974483
  0
DIMSTYLE
105
C90E73C08D47C703
330
C90E73C08D47C621
100
AcDbSymbolTableRecord
100
AcDbDimStyleTableRecord
  2
AM_ANSI$4
 70
     0
  4
mm
 41
0.1
 42
0.05
 43
0.5
 44
0.1
 47
0.1
 48
0.1
 78
     7
 79
     2
 90
     1
140
0.12
141
0.0
146
0.71
147
0.06
176
   256
177
   256
178
     2
274
     4
284
     7
288
     1
289
     0
340
C90E73C08D47C628
371
    -1
372
    -1
1001
ACAD_DSTYLE_DIMJOGGED_JOGANGLE_SYMBOL
1070
   384
1040
0.7853981633974483
  0
DIMSTYLE
105
C90E73C08D47C704
330
C90E73C08D47C621
100
AcDbSymbolTableRecord
100
AcDbDimStyleTableRecord
  2
AM_ANSI$7
 70
     0
  4
mm
 41
0.1
 42
0.05
 43
0.5
 44
0.1
 47
0.1
 48
0.1
 78
     7
 79
     2
 90
     1
140
0.24
141
0.0
146
0.71
147
0.06
176
   256
177
   256
178
     2
274
     4
284
     7
340
C90E73C08D47C628
371
    -1
372
    -1
1001
ACAD_DSTYLE_DIMJOGGED_JOGANGLE_SYMBOL
1070
   384
1040
0.7853981633974483
  0
DIMSTYLE
105
C90E73C08D47C705
330
C90E73C08D47C621
100
AcDbSymbolTableRecord
100
AcDbDimStyleTableRecord
  2
AM_ANSI$SF
 70
     0
  4
mm
 41
0.1
 42
0.05
 43
0.5
 44
0.1
 47
0.1
 48
0.1
 75
     1
 76
     1
 78
     7
 79
     2
 90
     1
140
0.12
141
0.0
146
0.71
147
0.06
176
   256
177
   256
178
     2
274
     4
284
     7
340
C90E73C08D47C628
371
    -1
372
    -1
1001
ACAD_DSTYLE_DIMJOGGED_JOGANGLE_SYMBOL
1070
   384
1040
0.7853981633974483
  0
DIMSTYLE
105
C90E73C08D47C70A
330
C90E73C08D47C621
100
AcDbSymbolTableRecord
100
AcDbDimStyleTableRecord
  2
AM_ANSI$SH
 70
     0
  4
mm
 41
0.1
 42
0.05
 43
0.5
 44
0.1
 47
0.1
 48
0.1
 75
     1
 76
     1
 78
     7
 79
     2
 90
     1
140
0.12
141
0.0
146
0.71
147
0.06
173
     1
176
   256
177
   256
178
     2
274
     4
284
     7
340
C90E73C08D47C628
343
C90E73C08D47C706
371
    -1
372
    -1
1001
ACAD_DSTYLE_DIMJOGGED_JOGANGLE_SYMBOL
1070
   384
1040
0.7853981633974483
  0
DIMSTYLE
105
C90E73C08D47D289
330
C90E73C08D47C621
100
AcDbSymbolTableRecord
100
AcDbDimStyleTableRecord
  2
HSTANDARD
 70
     0
 40
0.5
 41
0.125
 42
0.075
 44
0.08
140
0.08
141
0.0
146
0.4444444444444445
176
   112
177
     9
178
   256
271
     3
272
     3
340
C90E73C08D47C643
  0
DIMSTYLE
105
C90E73C08D47D28A
330
C90E73C08D47C621
100
AcDbSymbolTableRecord
100
AcDbDimStyleTableRecord
  2
2XSCALE
 70
     0
 40
0.5
 41
0.125
 42
0.09
 44
0.08
140
0.08
141
-0.09
144
4.0
146
0.4444440000000001
176
   112
177
     9
178
   256
271
     3
272
     3
340
C90E73C08D47C643
  0
DIMSTYLE
105
C90E73C08D47D28B
330
C90E73C08D47C621
100
AcDbSymbolTableRecord
100
AcDbDimStyleTableRecord
  2
2X DETAIL
 70
     0
 40
0.5
 41
0.125
 42
0.055
 44
0.08
140
0.08
144
0.5
146
0.4444444444444445
176
   112
177
     9
178
   256
271
     3
272
     3
289
     1
340
C90E73C08D47C643
  0
ENDTAB
  0
TABLE
  2
BLOCK_RECORD
  5
C90E73C08D47C618
330
0
100
AcDbSymbolTable
 70
    13
  0
BLOCK_RECORD
  5
C90E73C08D47C637
102
{ACAD_XDICTIONARY
360
C90E73C08D47CC56
102
}
330
C90E73C08D47C618
100
AcDbSymbolTableRecord
100
AcDbBlockTableRecord
  2
*Model_Space
340
C90E73C08D47C63A
 70
     0
280
     1
281
     0
  0
BLOCK_RECORD
  5
C90E73C08D47C633
330
C90E73C08D47C618
100
AcDbSymbolTableRecord
100
AcDbBlockTableRecord
  2
*Paper_Space
340
C90E73C08D47C636
 70
     0
280
     1
281
     0
  0
BLOCK_RECORD
  5
C90E73C08D47C63B
330
C90E73C08D47C618
100
AcDbSymbolTableRecord
100
AcDbBlockTableRecord
  2
2X4
340
0
102
{BLKREFS
331
C90E73C08D47C8C6
331
C90E73C08D47C8CC
331
C90E73C08D47C8D2
331
C90E73C08D47C8D4
331
C90E73C08D47C8DB
102
}
 70
     0
280
     1
281
     0
  0
BLOCK_RECORD
  5
C90E73C08D47C641
102
{ACAD_XDICTIONARY
360
C90E73C08D47C86B
102
}
330
C90E73C08D47C618
100
AcDbSymbolTableRecord
100
AcDbBlockTableRecord
  2
ASDTNUM
340
0
 70
     0
280
     1
281
     0
  0
BLOCK_RECORD
  5
C90E73C08D47C6C6
330
C90E73C08D47C618
100
AcDbSymbolTableRecord
100
AcDbBlockTableRecord
  2
*U2
340
0
 70
     0
280
     1
281
     0
  0
BLOCK_RECORD
  5
C90E73C08D47C706
330
C90E73C08D47C618
100
AcDbSymbolTableRecord
100
AcDbBlockTableRecord
  2
GENAXEH
340
0
 70
     0
280
     1
281
     0
  0
BLOCK_RECORD
  5
C90E73C08D47C71A
330
C90E73C08D47C618
100
AcDbSymbolTableRecord
100
AcDbBlockTableRecord
  2
INSL .5 wide
340
0
310
2800000020000000200000000100080000000000000400000000000000000000000000000000000000000000000080000080000000808000800000008000800080800000C0C0C000C0DCC000F0CAA6000020400000206000002080000020A0000020C0000020E00000400000004020000040400000406000004080000040A0
310
000040C0000040E00000600000006020000060400000606000006080000060A0000060C0000060E00000800000008020000080400000806000008080000080A0000080C0000080E00000A0000000A0200000A0400000A0600000A0800000A0A00000A0C00000A0E00000C0000000C0200000C0400000C0600000C0800000C0
310
A00000C0C00000C0E00000E0000000E0200000E0400000E0600000E0800000E0A00000E0C00000E0E00040000000400020004000400040006000400080004000A0004000C0004000E00040200000402020004020400040206000402080004020A0004020C0004020E000404000004040200040404000404060004040800040
310
40A0004040C0004040E00040600000406020004060400040606000406080004060A0004060C0004060E00040800000408020004080400040806000408080004080A0004080C0004080E00040A0000040A0200040A0400040A0600040A0800040A0A00040A0C00040A0E00040C0000040C0200040C0400040C0600040C08000
310
40C0A00040C0C00040C0E00040E0000040E0200040E0400040E0600040E0800040E0A00040E0C00040E0E00080000000800020008000400080006000800080008000A0008000C0008000E00080200000802020008020400080206000802080008020A0008020C0008020E00080400000804020008040400080406000804080
310
008040A0008040C0008040E00080600000806020008060400080606000806080008060A0008060C0008060E00080800000808020008080400080806000808080008080A0008080C0008080E00080A0000080A0200080A0400080A0600080A0800080A0A00080A0C00080A0E00080C0000080C0200080C0400080C0600080C0
310
800080C0A00080C0C00080C0E00080E0000080E0200080E0400080E0600080E0800080E0A00080E0C00080E0E000C0000000C0002000C0004000C0006000C0008000C000A000C000C000C000E000C0200000C0202000C0204000C0206000C0208000C020A000C020C000C020E000C0400000C0402000C0404000C0406000C0
310
408000C040A000C040C000C040E000C0600000C0602000C0604000C0606000C0608000C060A000C060C000C060E000C0800000C0802000C0804000C0806000C0808000C080A000C080C000C080E000C0A00000C0A02000C0A04000C0A06000C0A08000C0A0A000C0A0C000C0A0E000C0C00000C0C02000C0C04000C0C06000
310
C0C08000C0C0A000F0FBFF00A4A0A000808080000000FF0000FF000000FFFF00FF000000FF00FF00FFFF0000FFFFFF0000000000000000000000000000000000000000000000000000000000000000000000000000000007070000000000000000000000000000070700000000000000000000000000000000070707070000
310
00000000070707070000000000000000000000000000000000000000000707070000070707000000000000000000000000000000000000000000000000000007070707000000000000000000000000000000000000000000000000000000000007070000000000000000000000000000000000000000000000000000000000
310
00070700000000000000000000000000000000000000000000000000000000000007070000000000000000000000000000000000000000000000000000000000000707000000000000000000000000000000000000000000000000000000000007000007000000000000000000000000000000000000000000000000000000
310
00070000070000000000000000000000000000000000000000000000000000000700000000070000000000000000000000000000000000000000000000000000070000000007000000000000000000000000000000000000000000000000000007000000000700000000000000000000000000000000000000000000000000
310
07000000000000070000000000000000000000000000000000000000000000000700000000000007000000000000000000000000000000000000000000000007000000000000000007000000000000000000000000000000000000000000000700000000000000000700000000000000000000000000000000000000000007
310
00000000000000000000070000000000000000000000000000000000000000070000000000000000000007000000000000000000000000000000000000000007000000000000000000000700000000000000000000000000000000000000070000000000000000000000000700000000000000000000000000000000000007
310
00000000000000000000000007000000000000000000000000000000000007000000000000000000000000000007000000000000000000000000000000000700000000000000000000000000000700000000000000000000000000000000070000000000000000000000000000070000000000000000000000000000000007
310
00000000000000000000000000000700000000000000000000000000000000070700000000000000000000000007070000000000000000000000000000000000070700000000000000000000070700000000000000000000000000000000000000000707070700000707070700000000000000000000000000000000000000
310
0000000000000707070700000000000000000000000000000000000000000000000000000000000000000000000000000000000000000000
102
{BLKREFS
331
C90E73C08D47C882
331
C90E73C08D47C883
331
C90E73C08D47C884
331
C90E73C08D47C885
331
C90E73C08D47C886
331
C90E73C08D47C887
331
C90E73C08D47C888
331
C90E73C08D47C889
331
C90E73C08D47C88A
331
C90E73C08D47C88B
331
C90E73C08D47C88C
331
C90E73C08D47C88D
331
C90E73C08D47C88E
331
C90E73C08D47C88F
331
C90E73C08D47C890
331
C90E73C08D47C891
331
C90E73C08D47C892
331
C90E73C08D47C893
331
C90E73C08D47C894
331
C90E73C08D47C895
331
C90E73C08D47C896
331
C90E73C08D47C897
331
C90E73C08D47C898
331
C90E73C08D47C899
331
C90E73C08D47C89A
331
C90E73C08D47C89B
331
C90E73C08D47C89C
331
C90E73C08D47C89D
331
C90E73C08D47C89E
331
C90E73C08D47C89F
331
C90E73C08D47C8A0
331
C90E73C08D47C8A1
331
C90E73C08D47C8A2
331
C90E73C08D47C8A3
331
C90E73C08D47C8A4
331
C90E73C08D47C8A5
331
C90E73C08D47C8A6
331
C90E73C08D47C8A7
331
C90E73C08D47C8A8
331
C90E73C08D47C8A9
331
C90E73C08D47C8AA
331
C90E73C08D47C8AB
331
C90E73C08D47C8AC
331
C90E73C08D47C8AD
331
C90E73C08D47C8AE
102
}
 70
     1
280
     1
281
     0
  0
BLOCK_RECORD
  5
C90E73C08D47CEAB
102
{ACAD_XDICTIONARY
360
C90E73C08D47CEB3
102
}
330
C90E73C08D47C618
100
AcDbSymbolTableRecord
100
AcDbBlockTableRecord
  2
0.855 Glass
340
0
 70
     0
280
     1
281
     0
  0
BLOCK_RECORD
  5
C90E73C08D47CFFC
330
C90E73C08D47C618
100
AcDbSymbolTableRecord
100
AcDbBlockTableRecord
  2
Reinforced Bytyl Spacer
340
0
102
{BLKREFS
331
C90E73C08D47D01E
331
C90E73C08D47D022
331
C90E73C08D47D023
331
C90E73C08D47D007
102
}
 70
     0
280
     1
281
     0
  0
BLOCK_RECORD
  5
C90E73C08D47D20C
102
{ACAD_XDICTIONARY
360
C90E73C08D47D20F
102
}
330
C90E73C08D47C618
100
AcDbSymbolTableRecord
100
AcDbBlockTableRecord
  2
Silicon Small Vertical Top
340
0
102
{BLKREFS
331
C90E73C08D47D215
102
}
 70
     0
280
     1
281
     0
  0
BLOCK_RECORD
  5
C90E73C08D47D239
102
{ACAD_XDICTIONARY
360
C90E73C08D47D23B
102
}
330
C90E73C08D47C618
100
AcDbSymbolTableRecord
100
AcDbBlockTableRecord
  2
Weather Seal
340
0
102
{BLKREFS
331
C90E73C08D47D240
331
C90E73C08D47D242
331
C90E73C08D47D244
331
C90E73C08D47D245
102
}
 70
     0
280
     1
281
     0
  0
BLOCK_RECORD
  5
C90E73C08D47D39D
330
C90E73C08D47C618
100
AcDbSymbolTableRecord
100
AcDbBlockTableRecord
  2
$AUDIT_BAD_BLOCK
340
0
102
{BLKREFS
331
C90E73C08D47CEB0
102
}
 70
     0
280
     1
281
     0
  0
BLOCK_RECORD
  5
C90E73C08D47D3BB
102
{ACAD_XDICTIONARY
360
C90E73C08D47D3BC
102
}
330
C90E73C08D47C618
100
AcDbSymbolTableRecord
100
AcDbBlockTableRecord
  2
AS extents block
340
0
310
2800000020000000200000000100080000000000000400000000000000000000000000000000000000000000000080000080000000808000800000008000800080800000C0C0C000C0DCC000F0CAA6000020400000206000002080000020A0000020C0000020E00000400000004020000040400000406000004080000040A0
310
000040C0000040E00000600000006020000060400000606000006080000060A0000060C0000060E00000800000008020000080400000806000008080000080A0000080C0000080E00000A0000000A0200000A0400000A0600000A0800000A0A00000A0C00000A0E00000C0000000C0200000C0400000C0600000C0800000C0
310
A00000C0C00000C0E00000E0000000E0200000E0400000E0600000E0800000E0A00000E0C00000E0E00040000000400020004000400040006000400080004000A0004000C0004000E00040200000402020004020400040206000402080004020A0004020C0004020E000404000004040200040404000404060004040800040
310
40A0004040C0004040E00040600000406020004060400040606000406080004060A0004060C0004060E00040800000408020004080400040806000408080004080A0004080C0004080E00040A0000040A0200040A0400040A0600040A0800040A0A00040A0C00040A0E00040C0000040C0200040C0400040C0600040C08000
310
40C0A00040C0C00040C0E00040E0000040E0200040E0400040E0600040E0800040E0A00040E0C00040E0E00080000000800020008000400080006000800080008000A0008000C0008000E00080200000802020008020400080206000802080008020A0008020C0008020E00080400000804020008040400080406000804080
310
008040A0008040C0008040E00080600000806020008060400080606000806080008060A0008060C0008060E00080800000808020008080400080806000808080008080A0008080C0008080E00080A0000080A0200080A0400080A0600080A0800080A0A00080A0C00080A0E00080C0000080C0200080C0400080C0600080C0
310
800080C0A00080C0C00080C0E00080E0000080E0200080E0400080E0600080E0800080E0A00080E0C00080E0E000C0000000C0002000C0004000C0006000C0008000C000A000C000C000C000E000C0200000C0202000C0204000C0206000C0208000C020A000C020C000C020E000C0400000C0402000C0404000C0406000C0
310
408000C040A000C040C000C040E000C0600000C0602000C0604000C0606000C0608000C060A000C060C000C060E000C0800000C0802000C0804000C0806000C0808000C080A000C080C000C080E000C0A00000C0A02000C0A04000C0A06000C0A08000C0A0A000C0A0C000C0A0E000C0C00000C0C02000C0C04000C0C06000
310
C0C08000C0C0A000F0FBFF00A4A0A000808080000000FF0000FF000000FFFF00FF000000FF00FF00FFFF0000FFFFFF0000000000000000000000000000000000000000000000000000000000000000000000000000000000000000000000000000000000000000000000000000000000000000000000000000000000000000
310
00000000000000000000000000000000000000000000000000000000000000000000000000000000000000000000000000000000000000000000000000000000000000000000000000000000000000000000000000000000000000000000000000000000000000000000000000000000000000000000000000000000000000
310
00000000000000000000000000000000000000000000000000000000000000000000000000000000000000000000000000000000000000000000000000000000000000000000000000000000000000000000000000000000000000000000000000000000000000000000000000000000000000000000000000000000000000
310
00000000000000000000000000000000000000000000000000000000000000000000000000000000000000000000000000000000000000000000000000000000000000000000000000000000000000000000000000000000000000000000000000000000000000000000000000000000000000000000000000000000000000
310
00000000000000000000000000000000000000000000000000000000000000000000000000000000000000000000000000000000000000000000000000000000000000000000000000000000000000000000000000000000000000000000000000000000000000000000000000000000000000000000000000000000000000
310
00000000000000000000000000000000000000000000000000000000000000000000000000000000000000000000000000000000000000000000000000000000000000000000000000000000000000000000000000000000000000000000000000000000000000000000000000000000000000000000000000000000000000
310
00000000000000000000000000000000000000000000000000000000000000000000000000000000000000000000000000000000000000000000000000000000000000000000000000000000000000000000000000000000000000000000000000000000000000000000000000000000000000000000000000000000000000
310
00000000000000000000000000000000000000000000000000000000000000000000000000000000000000000000000000000000000000000000000000000000000000000000000000000000000000000000000000000000000000000000000000000000000000000000000000000000000000000000000000000000000000
310
0000000000000000000000000000000000000000000000000000000000000000000000000000000000000000000000000000000000000000
102
{BLKREFS
331
C90E73C08D47D3D0
102
}
 70
     0
280
     1
281
     0
  0
BLOCK_RECORD
  5
C90E73C08D47D3D1
330
C90E73C08D47C618
100
AcDbSymbolTableRecord
100
AcDbBlockTableRecord
  2
revs
340
0
310
2800000020000000200000000100080000000000000400000000000000000000000000000000000000000000000080000080000000808000800000008000800080800000C0C0C000C0DCC000F0CAA6000020400000206000002080000020A0000020C0000020E00000400000004020000040400000406000004080000040A0
310
000040C0000040E00000600000006020000060400000606000006080000060A0000060C0000060E00000800000008020000080400000806000008080000080A0000080C0000080E00000A0000000A0200000A0400000A0600000A0800000A0A00000A0C00000A0E00000C0000000C0200000C0400000C0600000C0800000C0
310
A00000C0C00000C0E00000E0000000E0200000E0400000E0600000E0800000E0A00000E0C00000E0E00040000000400020004000400040006000400080004000A0004000C0004000E00040200000402020004020400040206000402080004020A0004020C0004020E000404000004040200040404000404060004040800040
310
40A0004040C0004040E00040600000406020004060400040606000406080004060A0004060C0004060E00040800000408020004080400040806000408080004080A0004080C0004080E00040A0000040A0200040A0400040A0600040A0800040A0A00040A0C00040A0E00040C0000040C0200040C0400040C0600040C08000
310
40C0A00040C0C00040C0E00040E0000040E0200040E0400040E0600040E0800040E0A00040E0C00040E0E00080000000800020008000400080006000800080008000A0008000C0008000E00080200000802020008020400080206000802080008020A0008020C0008020E00080400000804020008040400080406000804080
310
008040A0008040C0008040E00080600000806020008060400080606000806080008060A0008060C0008060E00080800000808020008080400080806000808080008080A0008080C0008080E00080A0000080A0200080A0400080A0600080A0800080A0A00080A0C00080A0E00080C0000080C0200080C0400080C0600080C0
310
800080C0A00080C0C00080C0E00080E0000080E0200080E0400080E0600080E0800080E0A00080E0C00080E0E000C0000000C0002000C0004000C0006000C0008000C000A000C000C000C000E000C0200000C0202000C0204000C0206000C0208000C020A000C020C000C020E000C0400000C0402000C0404000C0406000C0
310
408000C040A000C040C000C040E000C0600000C0602000C0604000C0606000C0608000C060A000C060C000C060E000C0800000C0802000C0804000C0806000C0808000C080A000C080C000C080E000C0A00000C0A02000C0A04000C0A06000C0A08000C0A0A000C0A0C000C0A0E000C0C00000C0C02000C0C04000C0C06000
310
C0C08000C0C0A000F0FBFF00A4A0A000808080000000FF0000FF000000FFFF00FF000000FF00FF00FFFF0000FFFFFF0000000000000000000000000000000000000000000000000000000000000000000000000000000000000000000000000000000000000000000000000000000000000000000000000000000000000000
310
00000000000000000000000000000000000000000000000000000000000000000000000000000000000000000000000000000000000000000000000000000000000000000000000000000000000000000000000000000000000000000000000000000000000000000000000000000000000000000000000000000000000000
310
00000000000000000000000000000000000000000000000000000000000000000000000000000000000000000000000000000000000000000000000000000000000000000000000000000000000000000000000000000000000000000000000000000000000000000000000000000000000000000000000000000000000000
310
00000000000000000000000000000000000000000000000000000000000000000000000000000000000000000000000000000000000000000000000000000000000000000000000000000000000000000000000000000000000000000000000000000000000000000000000000000000000000000000000000000000000000
310
00000000000000000000000000000000000000000007070707070707000000000000000000000000000000000007070707070000000707070007070700000000000000000000000000000000000707000707070000000000000000000000000000000000000000000000000000000000000000000000000000000000000000
310
00000000000000000000000000000000000000000000000000000000000000000000000000000000000000000000000000000000000000000000000000000000000000000000000000000000000000000000000000000000000000000000000000000000000000000000000000000000000000000000000000000000000000
310
00000000000000000000000000000000000000000000000000000000000000000000000000000000000000000000000000000000000000000000000000000000000000000000000000000000000000000000000000000000000000000000000000000000000000000000000000000000000000000000000000000000000000
310
00000000000000000000000000000000000000000000000000000000000000000000000000000000000000000000000000000000000000000000000000000000000000000000000000000000000000000000000000000000000000000000000000000000000000000000000000000000000000000000000000000000000000
310
0000000000000000000000000000000000000000000000000000000000000000000000000000000000000000000000000000000000000000
 70
     0
280
     1
281
     0
  0
BLOCK_RECORD
  5
C90E73C08D47D58C
330
C90E73C08D47C618
100
AcDbSymbolTableRecord
100
AcDbBlockTableRecord
  2
rev
340
0
310
2800000020000000200000000100080000000000000400000000000000000000000000000000000000000000000080000080000000808000800000008000800080800000C0C0C000C0DCC000F0CAA6000020400000206000002080000020A0000020C0000020E00000400000004020000040400000406000004080000040A0
310
000040C0000040E00000600000006020000060400000606000006080000060A0000060C0000060E00000800000008020000080400000806000008080000080A0000080C0000080E00000A0000000A0200000A0400000A0600000A0800000A0A00000A0C00000A0E00000C0000000C0200000C0400000C0600000C0800000C0
310
A00000C0C00000C0E00000E0000000E0200000E0400000E0600000E0800000E0A00000E0C00000E0E00040000000400020004000400040006000400080004000A0004000C0004000E00040200000402020004020400040206000402080004020A0004020C0004020E000404000004040200040404000404060004040800040
310
40A0004040C0004040E00040600000406020004060400040606000406080004060A0004060C0004060E00040800000408020004080400040806000408080004080A0004080C0004080E00040A0000040A0200040A0400040A0600040A0800040A0A00040A0C00040A0E00040C0000040C0200040C0400040C0600040C08000
310
40C0A00040C0C00040C0E00040E0000040E0200040E0400040E0600040E0800040E0A00040E0C00040E0E00080000000800020008000400080006000800080008000A0008000C0008000E00080200000802020008020400080206000802080008020A0008020C0008020E00080400000804020008040400080406000804080
310
008040A0008040C0008040E00080600000806020008060400080606000806080008060A0008060C0008060E00080800000808020008080400080806000808080008080A0008080C0008080E00080A0000080A0200080A0400080A0600080A0800080A0A00080A0C00080A0E00080C0000080C0200080C0400080C0600080C0
310
800080C0A00080C0C00080C0E00080E0000080E0200080E0400080E0600080E0800080E0A00080E0C00080E0E000C0000000C0002000C0004000C0006000C0008000C000A000C000C000C000E000C0200000C0202000C0204000C0206000C0208000C020A000C020C000C020E000C0400000C0402000C0404000C0406000C0
310
408000C040A000C040C000C040E000C0600000C0602000C0604000C0606000C0608000C060A000C060C000C060E000C0800000C0802000C0804000C0806000C0808000C080A000C080C000C080E000C0A00000C0A02000C0A04000C0A06000C0A08000C0A0A000C0A0C000C0A0E000C0C00000C0C02000C0C04000C0C06000
310
C0C08000C0C0A000F0FBFF00A4A0A000808080000000FF0000FF000000FFFF00FF000000FF00FF00FFFF0000FFFFFF0000000000000000000000000000000000000000000000000000000000000000000000000000000000000000000000000000000000000000000000000000000000000000000000000000000000000000
310
00000000000000000000000000000000000000000000000000000000000000000000000000000000000000000000000000000000000000000000000000000000000000000000000000000000000000000000000000000000000000000000000000000000000000000000000000000000000000000000000000000000000000
310
00000000000000000000000000000000000000000000000000000000000000000000000000000000000000000000000000000000000000000000000000000000000000000000000000000000000000000000000000000000000000000000000000000000000000000000000000000000000000000000000000000000000000
310
00000000000000000000000000000000000000000000000000000000000000000000000000000000000000000000000000000000000000000000000000000000000000000000000000000000000000000000000000000000000000000000000000000000000000000000000000000000000000000000000000000000000000
310
00000000000000000000000000000000000000000007070707070000000000000000000000000000000000000000070707070000000707070707000000000000000000000000000000000000000007070707070000000000000000000000000000000000000000000000000000000000000000000000000000000000000000
310
00000000000000000000000000000000000000000000000000000000000000000000000000000000000000000000000000000000000000000000000000000000000000000000000000000000000000000000000000000000000000000000000000000000000000000000000000000000000000000000000000000000000000
310
00000000000000000000000000000000000000000000000000000000000000000000000000000000000000000000000000000000000000000000000000000000000000000000000000000000000000000000000000000000000000000000000000000000000000000000000000000000000000000000000000000000000000
310
00000000000000000000000000000000000000000000000000000000000000000000000000000000000000000000000000000000000000000000000000000000000000000000000000000000000000000000000000000000000000000000000000000000000000000000000000000000000000000000000000000000000000
310
0000000000000000000000000000000000000000000000000000000000000000000000000000000000000000000000000000000000000000
102
{BLKREFS
331
C90E73C08D47D593
102
}
 70
     0
280
     1
281
     0
  0
ENDTAB
  0
ENDSEC
  0
SECTION
  2
BLOCKS
  0
BLOCK
  5
C90E73C08D47C672
330
C90E73C08D47C637
100
AcDbEntity
  8
0
100
AcDbBlockBegin
  2
*Model_Space
 70
     0
 10
0.0
 20
0.0
 30
0.0
  3
*Model_Space
  1

  0
ENDBLK
  5
C90E73C08D47C673
330
C90E73C08D47C637
100
AcDbEntity
  8
0
100
AcDbBlockEnd
  0
BLOCK
  5
C90E73C08D47C670
330
C90E73C08D47C633
100
AcDbEntity
 67
     1
  8
0
100
AcDbBlockBegin
  2
*Paper_Space
 70
     0
 10
0.0
 20
0.0
 30
0.0
  3
*Paper_Space
  1

  0
ENDBLK
  5
C90E73C08D47C671
330
C90E73C08D47C633
100
AcDbEntity
 67
     1
  8
0
100
AcDbBlockEnd
  0
BLOCK
  5
1C2BF
330
C90E73C08D47C63B
100
AcDbEntity
  8
0
100
AcDbBlockBegin
  2
2X4
 70
     0
 10
0.0
 20
0.0
 30
0.0
  3
2X4
  1

  0
POLYLINE
  5
1C2C0
330
C90E73C08D47C63B
100
AcDbEntity
  8
3
100
AcDb2dPolyline
 66
     1
 10
0.0
 20
0.0
 30
0.0
 70
     1
  0
VERTEX
  5
1C2C1
330
1C2C0
100
AcDbEntity
  8
3
100
AcDbVertex
100
AcDb2dVertex
 10
-1.438
 20
-1.75
 30
0.0
  0
VERTEX
  5
1C2C2
330
1C2C0
100
AcDbEntity
  8
3
100
AcDbVertex
100
AcDb2dVertex
 10
-0.0620000000000003
 20
-1.75
 30
0.0
 42
0.4142135623730951
  0
VERTEX
  5
1C2C3
330
1C2C0
100
AcDbEntity
  8
3
100
AcDbVertex
100
AcDb2dVertex
 10
0.0
 20
-1.688
 30
0.0
  0
VERTEX
  5
1C2C4
330
1C2C0
100
AcDbEntity
  8
3
100
AcDbVertex
100
AcDb2dVertex
 10
0.0
 20
1.688
 30
0.0
 42
0.4142135623730951
  0
VERTEX
  5
1C2C5
330
1C2C0
100
AcDbEntity
  8
3
100
AcDbVertex
100
AcDb2dVertex
 10
-0.0620000000000003
 20
1.75
 30
0.0
  0
VERTEX
  5
1C2C6
330
1C2C0
100
AcDbEntity
  8
3
100
AcDbVertex
100
AcDb2dVertex
 10
-1.438
 20
1.749999999999998
 30
0.0
 42
0.4142135623730951
  0
VERTEX
  5
1C2C7
330
1C2C0
100
AcDbEntity
  8
3
100
AcDbVertex
100
AcDb2dVertex
 10
-1.5
 20
1.687999999999998
 30
0.0
  0
VERTEX
  5
1C2C8
330
1C2C0
100
AcDbEntity
  8
3
100
AcDbVertex
100
AcDb2dVertex
 10
-1.5
 20
-1.688
 30
0.0
 42
0.4142135623730951
  0
SEQEND
  5
1C2C9
330
1C2C0
100
AcDbEntity
  8
3
  0
LINE
  5
1C2CA
330
C90E73C08D47C63B
100
AcDbEntity
  8
3
100
AcDbLine
 10
-1.488714099481102
 20
-1.723666232122569
 30
0.0
 11
-0.0112859005188995
 21
1.723666232122569
 31
0.0
  0
LINE
  5
1C2CB
330
C90E73C08D47C63B
100
AcDbEntity
  8
3
100
AcDbLine
 10
-1.488714099481101
 20
1.723666232122567
 30
0.0
 11
-0.0112859005188995
 21
-1.723666232122569
 31
0.0
  0
ENDBLK
  5
1C2CC
330
C90E73C08D47C63B
100
AcDbEntity
  8
0
100
AcDbBlockEnd
  0
BLOCK
  5
207A8014E1
330
C90E73C08D47C641
100
AcDbEntity
  8
0
100
AcDbBlockBegin
  2
ASDTNUM
 70
     2
 10
0.0
 20
0.0
 30
0.0
  3
ASDTNUM
  1

  0
TEXT
  5
207A80523D
330
C90E73C08D47C641
100
AcDbEntity
  8
THIN
100
AcDbText
 10
13.58214084242182
 20
0.6570694486990832
 30
0.0
 40
0.25
  1
AS
 51
10.0
  7
ROMANS
100
AcDbText
  0
ATTDEF
  5
C90E73C08D47C60F
330
C90E73C08D47C641
100
AcDbEntity
  8
THIN
100
AcDbText
 10
1.145491964163355
 20
0.7077964671298738
 30
0.0
 40
0.18
  1

 51
10.0
  7
ROMANS
100
AcDbAttributeDefinition
280
     0
  3
Revision date:
  2
REV:
 70
     0
280
     0
  0
TEXT
  5
C90E73C08D47C610
330
C90E73C08D47C641
100
AcDbEntity
  8
THIN
100
AcDbText
 10
0.3991511953395569
 20
0.7098478649101438
 30
0.0
 40
0.18
  1
REV.
 51
10.0
  7
ROMANS
100
AcDbText
  0
ATTDEF
  5
C90E73C08D47C611
330
C90E73C08D47C641
100
AcDbEntity
  8
THIN
100
AcDbText
 10
14.18958977281909
 20
0.6570000000000001
 30
0.0
 40
0.25
  1

 51
10.0
  7
ROMANS
100
AcDbAttributeDefinition
280
     0
  3
AS Drawing Num.:
  2
AS#
 70
     0
280
     0
  0
ENDBLK
  5
C90E73C08D47C613
330
C90E73C08D47C641
100
AcDbEntity
  8
0
100
AcDbBlockEnd
  0
BLOCK
  5
C90E73C08D47C6C7
330
C90E73C08D47C6C6
100
AcDbEntity
  8
0
100
AcDbBlockBegin
  2
*U2
 70
     1
 10
0.0
 20
0.0
 30
0.0
  3
*U2
  1

  0
ENDBLK
  5
C90E73C08D47C6C8
330
C90E73C08D47C6C6
100
AcDbEntity
  8
0
100
AcDbBlockEnd
  0
BLOCK
  5
C90E73C08D47C708
330
C90E73C08D47C706
100
AcDbEntity
  8
0
100
AcDbBlockBegin
  2
GENAXEH
 70
     0
 10
0.0
 20
0.0
 30
0.0
  3
GENAXEH
  1

  0
LINE
  5
C90E73C08D47C707
330
C90E73C08D47C706
100
AcDbEntity
  8
0
100
AcDbLine
 10
-1.0
 20
0.0
 30
0.0
 11
1.0
 21
0.0
 31
0.0
  0
ENDBLK
  5
C90E73C08D47C709
330
C90E73C08D47C706
100
AcDbEntity
  8
0
100
AcDbBlockEnd
  0
BLOCK
  5
C90E73C08D47C71B
330
C90E73C08D47C71A
100
AcDbEntity
  8
0
100
AcDbBlockBegin
  2
INSL .5 wide
 70
     0
 10
0.0
 20
0.0
 30
0.0
  3
INSL .5 wide
  1

  0
ELLIPSE
  5
C90E73C08D47C71C
330
C90E73C08D47C71A
100
AcDbEntity
  8
10
100
AcDbEllipse
 10
0.0738097650950636
 20
0.209029044755006
 30
0.0
 11
0.0699627021144503
 21
0.0000000000000082
 31
0.0
210
0.0
220
0.0
230
-1.0
 40
0.5856113901657281
 41
-1.570796326794828
 42
0.1651485199633784
  0
LINE
  5
C90E73C08D47C71D
330
C90E73C08D47C71A
100
AcDbEntity
  8
10
100
AcDbLine
 10
0.1428205493556334
 20
0.2022934612037943
 30
0.0
 11
0.0786087432131097
 21
0.0477065324330397
 31
0.0
  0
ELLIPSE
  5
C90E73C08D47C71E
330
C90E73C08D47C71A
100
AcDbEntity
  8
10
100
AcDbEllipse
 10
0.1476195301901413
 20
0.0409709552450011
 30
0.0
 11
0.0699627021144483
 21
0.0000000000000104
 31
0.0
210
0.0
220
0.0
230
-1.0
 40
0.5856113901658463
 41
1.570796326794983
 42
3.306741173553019
  0
ELLIPSE
  5
C90E73C08D47C71F
330
C90E73C08D47C71A
100
AcDbEntity
  8
10
100
AcDbEllipse
 10
0.0
 20
0.0409709552450011
 30
0.0
 11
-0.0699627021144483
 21
0.0000000000000104
 31
0.0
210
0.0
220
0.0
230
-1.0
 40
0.5856113901658461
 41
2.976444133626565
 42
4.712388980384602
  0
LINE
  5
C90E73C08D47C720
330
C90E73C08D47C71A
100
AcDbEntity
  8
10
100
AcDbLine
 10
0.0047989808344937
 20
0.2022934612037943
 30
0.0
 11
0.0690107869770316
 21
0.0477065324330397
 31
0.0
  0
ELLIPSE
  5
C90E73C08D47C721
330
C90E73C08D47C71A
100
AcDbEntity
  8
10
100
AcDbEllipse
 10
0.0738097650950636
 20
0.209029044755006
 30
0.0
 11
0.069962702114448
 21
0.0000000000000039
 31
0.0
210
0.0
220
0.0
230
-1.0
 40
0.585611390165747
 41
2.976444133626709
 42
4.712388980384722
  0
ENDBLK
  5
C90E73C08D47C722
330
C90E73C08D47C71A
100
AcDbEntity
  8
0
100
AcDbBlockEnd
  0
BLOCK
  5
C90E73C08D47CEB5
330
C90E73C08D47CEAB
100
AcDbEntity
  8
0
100
AcDbBlockBegin
  2
0.855 Glass
 70
     0
 10
0.0
 20
0.0
 30
0.0
  3
0.855 Glass
  1

  0
INSERT
  5
C90E73C08D47CEB0
330
C90E73C08D47CEAB
100
AcDbEntity
  8
0
100
AcDbBlockReference
  2
$AUDIT_BAD_BLOCK
 10
-0.0317499999999988
 20
-0.7569999999999997
 30
0.0
 50
90.0
1001
MTVPROFILELINK
1002
{
1000
#BlockRef=8d88322b-0x4727-456d-A579-1AA39265A36B|
1002
}
1005
0
  0
ENDBLK
  5
C90E73C08D47CEB6
330
C90E73C08D47CEAB
100
AcDbEntity
  8
0
100
AcDbBlockEnd
  0
BLOCK
  5
C90E73C08D47D005
330
C90E73C08D47CFFC
100
AcDbEntity
  8
0
100
AcDbBlockBegin
  2
Reinforced Bytyl Spacer
 70
     0
 10
0.0
 20
0.0
 30
0.0
  3
Reinforced Bytyl Spacer
  1

  0
HATCH
  5
C90E73C08D47CFFD
330
C90E73C08D47CFFC
100
AcDbEntity
  8
THIN
100
AcDbHatch
 10
0.0
 20
0.0
 30
0.0
210
0.0
220
0.0
230
1.0
  2
DOTS
 70
     0
 71
     1
 91
        1
 92
        7
 72
     0
 73
     1
 93
        4
 10
0.1562500000000382
 20
-0.0000000000000142
 10
0.0312500000000382
 20
-0.0000000000000142
 10
0.0312500000000382
 20
-0.6250000000000142
 10
0.1562500000000382
 20
-0.6250000000000142
 97
        1
330
C90E73C08D47CFFE
 75
     0
 76
     1
 52
90.0
 41
0.5
 77
     0
 78
     1
 53
90.0
 43
-3.611312044416422
 44
-5.060374581297608
 45
-0.03125
 46
0.015625
 79
     2
 49
0.0
 49
-0.03125
 47
0.0011899997355916
 98
        1
 10
0.1072450513476761
 20
-0.3381182195231638
  0
LWPOLYLINE
  5
C90E73C08D47CFFE
102
{ACAD_REACTORS
330
C90E73C08D47CFFD
330
C90E73C08D47D002
102
}
330
C90E73C08D47CFFC
100
AcDbEntity
  8
THIN
100
AcDbPolyline
 90
        4
 70
     1
 43
0.0
 10
0.0312500000000382
 20
-0.6250000000000142
 10
0.0312500000000382
 20
-0.0000000000000142
 10
0.1562500000000382
 20
-0.0000000000000142
 10
0.1562500000000382
 20
-0.6250000000000142
  0
HATCH
  5
C90E73C08D47CFFF
330
C90E73C08D47CFFC
100
AcDbEntity
  8
THIN
100
AcDbHatch
 10
0.0
 20
0.0
 30
0.0
210
0.0
220
0.0
230
1.0
  2
DOTS
 70
     0
 71
     1
 91
        1
 92
        7
 72
     0
 73
     1
 93
        4
 10
0.3925000000000391
 20
-0.6250000000000142
 10
0.4375000000000391
 20
-0.6250000000000142
 10
0.4375000000000382
 20
-0.0000000000000151
 10
0.3925000000000382
 20
-0.000000000000016
 97
        2
330
C90E73C08D47D000
330
C90E73C08D47D001
 75
     0
 76
     1
 52
90.0
 41
0.75
 77
     0
 78
     1
 53
90.0
 43
-3.611312044416422
 44
-5.060374581297608
 45
-0.046875
 46
0.0234375
 79
     2
 49
0.0
 49
-0.046875
 47
0.0016662947622985
 98
        1
 10
0.4139673496542083
 20
-0.5128218251640391
  0
LWPOLYLINE
  5
C90E73C08D47D000
102
{ACAD_REACTORS
330
C90E73C08D47CFFF
330
C90E73C08D47D002
102
}
330
C90E73C08D47CFFC
100
AcDbEntity
  8
THIN
100
AcDbPolyline
 90
        2
 70
     0
 43
0.0
 10
0.3925000000000382
 20
-0.0000000000000142
 10
0.3925000000000382
 20
-0.6250000000000142
  0
LWPOLYLINE
  5
C90E73C08D47D001
102
{ACAD_REACTORS
330
C90E73C08D47CFFF
330
C90E73C08D47D002
102
}
330
C90E73C08D47CFFC
100
AcDbEntity
  8
THIN
100
AcDbPolyline
 90
        4
 70
     0
 43
0.0
 10
0.1562500000000382
 20
-0.0000000000000142
 10
0.4375000000000382
 20
-0.0000000000000142
 10
0.4375000000000382
 20
-0.6250000000000142
 10
0.1562500000000382
 20
-0.6250000000000142
  0
HATCH
  5
C90E73C08D47D002
330
C90E73C08D47CFFC
100
AcDbEntity
  8
THIN
100
AcDbHatch
 10
0.0
 20
0.0
 30
0.0
210
0.0
220
0.0
230
1.0
  2
DOTS
 70
     0
 71
     1
 91
        2
 92
        7
 72
     0
 73
     1
 93
        4
 10
0.1562500000000386
 20
-0.6250000000000134
 10
0.3925000000000382
 20
-0.6250000000000142
 10
0.3925000000000391
 20
-0.0000000000000151
 10
0.1562500000000377
 20
-0.0000000000000133
 97
        3
330
C90E73C08D47CFFE
330
C90E73C08D47D001
330
C90E73C08D47D000
 92
       22
 72
     0
 73
     1
 93
        4
 10
0.2918750000000379
 20
-0.0075000000000136
 10
0.3018750000000385
 20
-0.0075000000000136
 10
0.3018750000000372
 20
-0.617500000000014
 10
0.2918750000000383
 20
-0.617500000000014
 97
        1
330
C90E73C08D47D003
 75
     0
 76
     1
 52
90.0
 41
0.25
 77
     0
 78
     1
 53
90.0
 43
-3.611312044416422
 44
-5.060374581297608
 45
-0.015625
 46
0.0078125
 79
     2
 49
0.0
 49
-0.015625
 47
0.0011899997355916
 98
        2
 10
0.2000650292932997
 20
-0.3154905681298565
 10
0.2000650292932997
 20
-0.3154905681298565
  0
LWPOLYLINE
  5
C90E73C08D47D003
102
{ACAD_REACTORS
330
C90E73C08D47D002
102
}
330
C90E73C08D47CFFC
100
AcDbEntity
  8
THIN
100
AcDbPolyline
 90
        4
 70
     1
 43
0.0
 10
0.3018750000000381
 20
-0.617500000000014
 10
0.3018750000000381
 20
-0.0075000000000136
 10
0.2918750000000383
 20
-0.0075000000000136
 10
0.2918750000000383
 20
-0.617500000000014
  0
LINE
  5
C90E73C08D47D004
330
C90E73C08D47CFFC
100
AcDbEntity
  8
THIN
100
AcDbLine
 10
0.1562500000000382
 20
-0.0000000000000142
 30
0.0
 11
0.1562500000000382
 21
-0.6250000000000142
 31
0.0
  0
ENDBLK
  5
C90E73C08D47D006
330
C90E73C08D47CFFC
100
AcDbEntity
  8
0
100
AcDbBlockEnd
  0
BLOCK
  5
C90E73C08D47D211
330
C90E73C08D47D20C
100
AcDbEntity
  8
0
100
AcDbBlockBegin
  2
Silicon Small Vertical Top
 70
     0
 10
0.0
 20
0.0
 30
0.0
  3
Silicon Small Vertical Top
  1

  0
HATCH
  5
C90E73C08D47D20D
330
C90E73C08D47D20C
100
AcDbEntity
  8
3
100
AcDbHatch
 10
0.0
 20
0.0
 30
0.0
210
0.0
220
0.0
230
1.0
  2
ANSI31
 70
     0
 71
     0
 91
        1
 92
        1
 93
       67
 72
     2
 10
0.0660000000000176
 20
-0.1214999999999833
 40
0.0660000000000167
 50
180.0
 51
360.0
 73
     1
 72
     1
 10
0.1320000000000343
 20
-0.1214999999999833
 11
0.1320000000000343
 21
-0.0660000000000167
 72
     1
 10
0.1320000000000343
 20
-0.0660000000000167
 11
0.1319205001095756
 21
-0.0627615334944061
 72
     1
 10
0.1319205001095756
 20
-0.0627615334944061
 11
0.1316821919603992
 21
-0.0595308687382641
 72
     1
 10
0.1316821919603992
 20
-0.0595308687382641
 11
0.1312856496577095
 21
-0.0563157886859607
 72
     1
 10
0.1312856496577095
 20
-0.0563157886859607
 11
0.1307318285066468
 21
-0.0531240387469509
 72
     1
 10
0.1307318285066468
 20
-0.0531240387469509
 11
0.1300220627108732
 21
-0.0499633081263973
 72
     1
 10
0.1300220627108732
 20
-0.0499633081263973
 11
0.1291580621583588
 21
-0.0468412113012171
 72
     1
 10
0.1291580621583588
 20
-0.0468412113012171
 11
0.128141908302112
 21
-0.0437652696761219
 72
     1
 10
0.128141908302112
 20
-0.0437652696761219
 11
0.1269760491457772
 21
-0.0407428934639143
 72
     1
 10
0.1269760491457772
 20
-0.0407428934639143
 11
0.1256632933461792
 21
-0.0377813638336093
 72
     1
 10
0.1256632933461792
 20
-0.0377813638336093
 11
0.1242068034470227
 21
-0.034887815369494
 72
     1
 10
0.1242068034470227
 20
-0.034887815369494
 11
0.1226100882600489
 21
-0.0320692188832545
 72
     1
 10
0.1226100882600489
 20
-0.0320692188832545
 11
0.1208769944119985
 21
-0.0293323646207107
 72
     1
 10
0.1208769944119985
 20
-0.0293323646207107
 11
0.1190116970777528
 21
-0.0266838459035057
 72
     1
 10
0.1190116970777528
 20
-0.0266838459035057
 11
0.1170186899219701
 21
-0.0241300432452079
 72
     1
 10
0.1170186899219701
 20
-0.0241300432452079
 11
0.1149027742734563
 21
-0.0216771089801036
 72
     1
 10
0.1149027742734563
 20
-0.0216771089801036
 11
0.1126690475583398
 21
-0.0193309524416918
 72
     1
 10
0.1126690475583398
 20
-0.0193309524416918
 11
0.1103228910199303
 21
-0.0170972257265767
 72
     1
 10
0.1103228910199303
 20
-0.0170972257265767
 11
0.1078699567548274
 21
-0.0149813100780634
 72
     1
 10
0.1078699567548274
 20
-0.0149813100780634
 11
0.1053161540965264
 21
-0.0129883029222811
 72
     1
 10
0.1053161540965264
 20
-0.0129883029222811
 11
0.1026676353793188
 21
-0.0111230055880327
 72
     1
 10
0.1026676353793188
 20
-0.0111230055880327
 11
0.0999307811167771
 21
-0.0093899117399836
 72
     1
 10
0.0999307811167771
 20
-0.0093899117399836
 11
0.0971121846305394
 21
-0.0077931965530098
 72
     1
 10
0.0971121846305394
 20
-0.0077931965530098
 11
0.0942186361664219
 21
-0.0063367066538511
 72
     1
 10
0.0942186361664219
 20
-0.0063367066538511
 11
0.0912571065361183
 21
-0.0050239508542553
 72
     1
 10
0.0912571065361183
 20
-0.0050239508542553
 11
0.088234730323908
 21
-0.0038580916979214
 72
     1
 10
0.088234730323908
 20
-0.0038580916979214
 11
0.085158788698815
 21
-0.0028419378416764
 72
     1
 10
0.085158788698815
 20
-0.0028419378416764
 11
0.0820366918736348
 21
-0.001977937289162
 72
     1
 10
0.0820366918736348
 20
-0.001977937289162
 11
0.0788759612530834
 21
-0.0012681714933862
 72
     1
 10
0.0788759612530834
 20
-0.0012681714933862
 11
0.0756842113140719
 21
-0.0007143503423244
 72
     1
 10
0.0756842113140719
 20
-0.0007143503423244
 11
0.0724691312617685
 21
-0.000317808039636
 72
     1
 10
0.0724691312617685
 20
-0.000317808039636
 11
0.0692384665056261
 21
-0.0000794998904574
 72
     1
 10
0.0692384665056261
 20
-0.0000794998904574
 11
0.0660000000000158
 21
0.0
 72
     1
 10
0.0660000000000158
 20
0.0
 11
0.0627615334944052
 21
-0.0000794998904574
 72
     1
 10
0.0627615334944052
 20
-0.0000794998904574
 11
0.0595308687382632
 21
-0.000317808039636
 72
     1
 10
0.0595308687382632
 20
-0.000317808039636
 11
0.0563157886859593
 21
-0.0007143503423244
 72
     1
 10
0.0563157886859593
 20
-0.0007143503423244
 11
0.0531240387469483
 21
-0.0012681714933898
 72
     1
 10
0.0531240387469483
 20
-0.0012681714933898
 11
0.0499633081263959
 21
-0.001977937289162
 72
     1
 10
0.0499633081263959
 20
-0.001977937289162
 11
0.0468412113012167
 21
-0.0028419378416764
 72
     1
 10
0.0468412113012167
 20
-0.0028419378416764
 11
0.0437652696761237
 21
-0.0038580916979214
 72
     1
 10
0.0437652696761237
 20
-0.0038580916979214
 11
0.0407428934639134
 21
-0.0050239508542553
 72
     1
 10
0.0407428934639134
 20
-0.0050239508542553
 11
0.0377813638336102
 21
-0.0063367066538547
 72
     1
 10
0.0377813638336102
 20
-0.0063367066538547
 11
0.0348878153694923
 21
-0.0077931965530098
 72
     1
 10
0.0348878153694923
 20
-0.0077931965530098
 11
0.0320692188832545
 21
-0.0093899117399836
 72
     1
 10
0.0320692188832545
 20
-0.0093899117399836
 11
0.0293323646207129
 21
-0.0111230055880363
 72
     1
 10
0.0293323646207129
 20
-0.0111230055880363
 11
0.0266838459035053
 21
-0.0129883029222811
 72
     1
 10
0.0266838459035053
 20
-0.0129883029222811
 11
0.0241300432452047
 21
-0.0149813100780634
 72
     1
 10
0.0241300432452047
 20
-0.0149813100780634
 11
0.0216771089801018
 21
-0.0170972257265767
 72
     1
 10
0.0216771089801018
 20
-0.0170972257265767
 11
0.0193309524416927
 21
-0.0193309524416918
 72
     1
 10
0.0193309524416927
 20
-0.0193309524416918
 11
0.0170972257265767
 21
-0.0216771089801036
 72
     1
 10
0.0170972257265767
 20
-0.0216771089801036
 11
0.0149813100780629
 21
-0.0241300432452043
 72
     1
 10
0.0149813100780629
 20
-0.0241300432452043
 11
0.0129883029222806
 21
-0.0266838459035057
 72
     1
 10
0.0129883029222806
 20
-0.0266838459035057
 11
0.0111230055880349
 21
-0.0293323646207142
 72
     1
 10
0.0111230055880349
 20
-0.0293323646207142
 11
0.0093899117399845
 21
-0.0320692188832545
 72
     1
 10
0.0093899117399845
 20
-0.0320692188832545
 11
0.0077931965530107
 21
-0.034887815369494
 72
     1
 10
0.0077931965530107
 20
-0.034887815369494
 11
0.0063367066538547
 21
-0.0377813638336093
 72
     1
 10
0.0063367066538547
 20
-0.0377813638336093
 11
0.0050239508542567
 21
-0.0407428934639143
 72
     1
 10
0.0050239508542567
 20
-0.0407428934639143
 11
0.0038580916979218
 21
-0.0437652696761219
 72
     1
 10
0.0038580916979218
 20
-0.0437652696761219
 11
0.0028419378416751
 21
-0.0468412113012171
 72
     1
 10
0.0028419378416751
 20
-0.0468412113012171
 11
0.0019779372891611
 21
-0.0499633081263973
 72
     1
 10
0.0019779372891611
 20
-0.0499633081263973
 11
0.0012681714933875
 21
-0.0531240387469509
 72
     1
 10
0.0012681714933875
 20
-0.0531240387469509
 11
0.0007143503423253
 21
-0.0563157886859607
 72
     1
 10
0.0007143503423253
 20
-0.0563157886859607
 11
0.000317808039636
 21
-0.0595308687382641
 72
     1
 10
0.000317808039636
 20
-0.0595308687382641
 11
0.0000794998904596
 21
-0.0627615334944061
 72
     1
 10
0.0000794998904596
 20
-0.0627615334944061
 11
0.0000000000000009
 21
-0.0660000000000167
 72
     1
 10
0.0000000000000009
 20
-0.0660000000000167
 11
0.0000000000000009
 21
-0.1214999999999833
 97
        0
 75
     0
 76
     1
 52
90.0
 41
0.25
 77
     0
 78
     1
 53
315.0
 43
-8.193344402733156
 44
8.108921739217226
 45
0.0220970869120796
 46
0.0220970869120796
 79
     0
 98
        1
 10
-3.134168425386246
 20
-17.9142790158413
1001
ACAD
1010
0.0
1020
0.0
1030
0.0
  0
LWPOLYLINE
  5
C90E73C08D47D20E
330
C90E73C08D47D20C
100
AcDbEntity
  8
THIN
100
AcDbPolyline
 90
        4
 70
     1
 43
0.0
 10
0.1320000000000343
 20
-0.1214999999999833
 10
0.1320000000000343
 20
-0.0660000000000167
 42
0.9999999999999998
 10
0.0000000000000009
 20
-0.0660000000000167
 10
0.0000000000000009
 20
-0.1214999999999833
 42
0.9999999999999998
  0
ENDBLK
  5
C90E73C08D47D212
330
C90E73C08D47D20C
100
AcDbEntity
  8
0
100
AcDbBlockEnd
  0
BLOCK
  5
C90E73C08D47D23D
330
C90E73C08D47D239
100
AcDbEntity
  8
0
100
AcDbBlockBegin
  2
Weather Seal
 70
     0
 10
0.0
 20
0.0
 30
0.0
  3
Weather Seal
  1

  0
LWPOLYLINE
  5
C90E73C08D47D23A
330
C90E73C08D47D239
100
AcDbEntity
  8
10
100
AcDbPolyline
 90
        8
 70
     0
 43
0.0
 10
-0.2140040708706117
 20
-0.0700547851418496
 42
0.2308365435434813
 10
-0.1014570656801901
 20
0.0
 10
-0.0313972213123126
 20
0.0000000000000004
 10
-0.0722456559543829
 20
-0.048469460869498
 42
-0.2169055378432189
 10
-0.1846107348229395
 20
-0.10200000000009
 10
-0.2331996891443744
 20
-0.1020000000000873
 42
-0.9441104267323005
 10
-0.2343217948658616
 20
-0.0720693186292443
 10
-0.2130040708706762
 20
-0.0700547851418425
  0
ENDBLK
  5
C90E73C08D47D23E
330
C90E73C08D47D239
100
AcDbEntity
  8
0
100
AcDbBlockEnd
  0
BLOCK
  5
C90E73C08D47D39F
330
C90E73C08D47D39D
100
AcDbEntity
  8
0
100
AcDbBlockBegin
  2
$AUDIT_BAD_BLOCK
 70
     0
 10
0.0
 20
0.0
 30
0.0
  3
$AUDIT_BAD_BLOCK
  1

  0
TEXT
  5
C90E73C08D47D39E
330
C90E73C08D47D39D
100
AcDbEntity
  8
0
100
AcDbText
 10
0.0
 20
0.0
 30
0.0
 40
0.18
  1
$AUDIT_BAD_BLOCK
  7
ROMANS
100
AcDbText
  0
ENDBLK
  5
C90E73C08D47D3A0
330
C90E73C08D47D39D
100
AcDbEntity
  8
0
100
AcDbBlockEnd
  0
BLOCK
  5
C90E73C08D47D3BD
330
C90E73C08D47D3BB
100
AcDbEntity
  8
0
100
AcDbBlockBegin
  2
AS extents block
 70
     0
 10
0.0
 20
0.0
 30
0.0
  3
AS extents block
  1

  0
LWPOLYLINE
  5
C90E73C08D47D3BE
330
C90E73C08D47D3BB
100
AcDbEntity
  8
paper
100
AcDbPolyline
 90
        4
 70
     1
 43
0.0
 10
0.0
 20
0.0
 10
17.0
 20
0.0
 10
17.0
 20
22.0
 10
0.0
 20
22.0
  0
ENDBLK
  5
C90E73C08D47D3BF
330
C90E73C08D47D3BB
100
AcDbEntity
  8
0
100
AcDbBlockEnd
  0
BLOCK
  5
C90E73C08D47D3D2
330
C90E73C08D47D3D1
100
AcDbEntity
  8
0
100
AcDbBlockBegin
  2
revs
 70
     2
 10
0.0
 20
0.0
 30
0.0
  3
revs
  1

  0
TEXT
  5
C90E73C08D47D3D5
330
C90E73C08D47D3D1
100
AcDbEntity
  8
THIN
100
AcDbText
 10
11.37486154973302
 20
-0.2162053953236969
 30
0.0
 40
0.36
  1
AS
 51
10.0
  7
ROMANS
100
AcDbText
  0
TEXT
  5
C90E73C08D47D3D6
330
C90E73C08D47D3D1
100
AcDbEntity
  8
THIN
100
AcDbText
 10
-0.1192373087415017
 20
-0.1106485629015763
 30
0.0
 40
0.36
  1
REV.
 51
10.0
  7
ROMANS
100
AcDbText
  0
ATTDEF
  5
C90E73C08D47D3D7
330
C90E73C08D47D3D1
100
AcDbEntity
  8
THIN
100
AcDbText
 10
12.58975941052756
 20
-0.2163442927218631
 30
0.0
 40
0.36
  1

 51
10.0
  7
ROMANS
100
AcDbAttributeDefinition
280
     0
  3
AS Drawing Num.:
  2
AS#
 70
     0
280
     0
  0
ATTDEF
  5
C90E73C08D47D3D8
330
C90E73C08D47D3D1
100
AcDbEntity
  8
THIN
100
AcDbText
 10
1.373444228906095
 20
-0.1147513584621165
 30
0.0
 40
0.36
  1

 51
10.0
  7
ROMANS
100
AcDbAttributeDefinition
280
     0
  3
Revision date:
  2
REV:
 70
     0
280
     0
  0
ENDBLK
  5
C90E73C08D47D3D3
330
C90E73C08D47D3D1
100
AcDbEntity
  8
0
100
AcDbBlockEnd
  0
BLOCK
  5
C90E73C08D47D58D
330
C90E73C08D47D58C
100
AcDbEntity
  8
0
100
AcDbBlockBegin
  2
rev
 70
     2
 10
0.0
 20
0.0
 30
0.0
  3
rev
  1

  0
TEXT
  5
C90E73C08D47D58F
330
C90E73C08D47D58C
100
AcDbEntity
  8
THIN
100
AcDbText
 10
20.3611888053795
 20
2.11314320499157
 30
0.0
 40
0.27
  1
AS
 51
10.0
  7
ROMANS
100
AcDbText
  0
TEXT
  5
C90E73C08D47D590
330
C90E73C08D47D58C
100
AcDbEntity
  8
THIN
100
AcDbText
 10
8.145647337188053
 20
2.192310829308161
 30
0.0
 40
0.27
  1
REV.
 51
10.0
  7
ROMANS
100
AcDbText
  0
ATTDEF
  5
C90E73C08D47D591
330
C90E73C08D47D58C
100
AcDbEntity
  8
THIN
100
AcDbText
 10
9.26515849042375
 20
2.189233732637756
 30
0.0
 40
0.27
  1

 51
10.0
  7
ROMANS
100
AcDbAttributeDefinition
280
     0
  3
Revision date:
  2
REV:
 70
     0
280
     0
  0
ATTDEF
  5
C90E73C08D47D592
330
C90E73C08D47D58C
100
AcDbEntity
  8
THIN
100
AcDbText
 10
21.2723622009754
 20
2.113039031942945
 30
0.0
 40
0.27
  1

 51
10.0
  7
ROMANS
100
AcDbAttributeDefinition
280
     0
  3
AS Drawing Num.:
  2
AS#
 70
     0
280
     0
  0
ENDBLK
  5
C90E73C08D47D58E
330
C90E73C08D47D58C
100
AcDbEntity
  8
0
100
AcDbBlockEnd
  0
ENDSEC
  0
SECTION
  2
ENTITIES
  0
TEXT
  5
654
330
C90E73C08D47C637
100
AcDbEntity
  8
ADCADD_FRZ
100
AcDbText
 10
0.5
 20
8.5
 30
0.0
 40
0.125
  1
TOOLBOX_DEFAULT_VALUES
100
AcDbText
1001
TB_S_MPD
1070
   100
1000
TOOLBOX
1070
   101
1000
TOOLBOX 12.0 TOOLBOX 12.0
1070
   102
1000
0
1070
   103
1000
ANSI-Fraction
1070
   199
1000
Conv
  0
TEXT
  5
655
330
C90E73C08D47C637
100
AcDbEntity
  8
ADCADD_FRZ
100
AcDbText
 10
0.5
 20
8.25
 30
0.0
 40
0.125
  1
CBORE_DEFAULT_VALUES
100
AcDbText
1001
TB_S_MPD
1070
   100
1000
CBORE
1070
   101
1000
TOOLBOX 12.0 CBORE 1.0
1070
   102
1000
Near side
1070
   103
1000
ANSI-Fraction
1070
   104
1000
shcs
1070
   105
1000
<Current>
1070
   106
1000
HIDDEN
1070
   107
1000
CENTER
1070
   300
1040
0.125
1070
   108
1000
1
1070
   109
1000
1
1070
   301
1040
0.03
1070
   110
1000
1
1070
   302
1040
0.0
1070
   303
1040
0.0
1070
   113
1000
1
1070
   117
1000
1
1070
   199
1000
Conv
  0
TEXT
  5
658
330
C90E73C08D47C637
100
AcDbEntity
  8
ADCADD_FRZ
100
AcDbText
 10
0.5
 20
7.25
 30
0.0
 40
0.125
  1
RECT_DEFAULT_VALUES
100
AcDbText
1001
TB_S_MPD
1070
   100
1000
RECT
1070
   101
1000
TOOLBOX 12.0 RECT 12.0
1070
   102
1000
0
1070
   103
1000
0
1070
   301
1040
0.0
1070
   105
1000
0
1070
   302
1040
0.0
1070
   104
1000
0
1070
   303
1040
0.0
1070
   304
1040
0.0
1070
   305
1040
0.0
1070
   306
1040
0.0
1070
   307
1040
0.0
  0
TEXT
  5
65B
330
C90E73C08D47C637
100
AcDbEntity
  8
ADCADD_FRZ
100
AcDbText
 10
0.5
 20
6.5
 30
0.0
 40
0.125
  1
CALC_DEFAULT_VALUES
100
AcDbText
1001
TB_S_MPD
1070
   100
1000
CALC
1070
   101
1000
TOOLBOX 12.0 CALC 12.0
1070
   102
1000
0
  0
TEXT
  5
65C
330
C90E73C08D47C637
100
AcDbEntity
  8
ADCADD_FRZ
100
AcDbText
 10
0.5
 20
6.25
 30
0.0
 40
0.125
  1
CSINK_DEFAULT_VALUES
100
AcDbText
1001
TB_S_MPD
1070
   100
1000
CSINK
1070
   101
1000
TOOLBOX 12.0 CSINK 1.0
1070
   102
1000
Near side
1070
   103
1000
ANSI-Fraction
1070
   104
1000
fhcs
1070
   105
1000
<Current>
1070
   106
1000
HIDDEN
1070
   107
1000
CENTER
1070
   300
1040
0.125
1070
   108
1000
1
1070
   109
1000
1
1070
   301
1040
0.03
1070
   110
1000
1
1070
   302
1040
0.0
1070
   303
1040
0.0
1070
   113
1000
1
1070
   117
1000
1
  0
TEXT
  5
65D
330
C90E73C08D47C637
100
AcDbEntity
  8
ADCADD_FRZ
100
AcDbText
 10
0.5
 20
6.0
 30
0.0
 40
0.125
  1
HOLE_DEFAULT_VALUES
100
AcDbText
1001
TB_S_MPD
1070
   100
1000
HOLE
1070
   101
1000
TOOLBOX 12.0 HOLE 1.0
1070
   102
1000
Near side
1070
   103
1000
ANSI-Fraction
1070
   104
1000
hole
1070
   110
1000
1
1070
   116
1000
1
1070
   117
1000
1
1070
   310
1040
118.0
1070
   105
1000
<Current>
1070
   106
1000
HIDDEN
1070
   107
1000
CENTER
1070
   300
1040
0.125
1070
   113
1000
1
1070
   108
1000
1
1070
   109
1000
1
1070
   302
1040
0.0
1070
   303
1040
0.0
1070
   304
1040
0.0
1070
   305
1040
0.0
  0
TEXT
  5
65E
330
C90E73C08D47C637
100
AcDbEntity
  8
ADCADD_FRZ
100
AcDbText
 10
0.5
 20
5.75
 30
0.0
 40
0.125
  1
PTAP_DEFAULT_VALUES
100
AcDbText
1001
TB_S_MPD
1070
   100
1000
PTAP
1070
   101
1000
TOOLBOX 12.0 PTAP 1.0
1070
   102
1000
Near side
1070
   103
1000
ANSI-Fraction
1070
   104
1000
ptap
1070
   116
1000
1
1070
   117
1000
1
1070
   310
1040
118.0
1070
   105
1000
<Current>
1070
   106
1000
HIDDEN
1070
   107
1000
CENTER
1070
   300
1040
0.125
1070
   113
1000
1
1070
   108
1000
1
1070
   109
1000
1
1070
   302
1040
0.0
1070
   303
1040
0.0
1070
   304
1040
0.0
1070
   305
1040
0.0
  0
TEXT
  5
65F
330
C90E73C08D47C637
100
AcDbEntity
  8
ADCADD_FRZ
100
AcDbText
 10
0.5
 20
5.5
 30
0.0
 40
0.125
  1
TAP_DEFAULT_VALUES
100
AcDbText
1001
TB_S_MPD
1070
   100
1000
TAP
1070
   101
1000
TOOLBOX 12.0 TAP 1.0
1070
   102
1000
Near side
1070
   103
1000
ANSI-Fraction
1070
   104
1000
tap_
1070
   110
1000
Plug
1070
   116
1000
1
1070
   117
1000
1
1070
   310
1040
118.0
1070
   105
1000
<Current>
1070
   106
1000
HIDDEN
1070
   107
1000
CENTER
1070
   300
1040
0.125
1070
   113
1000
1
1070
   108
1000
1
1070
   109
1000
1
1070
   302
1040
0.0
1070
   303
1040
0.0
1070
   304
1040
0.0
1070
   305
1040
0.0
  0
TEXT
  5
660
330
C90E73C08D47C637
100
AcDbEntity
  8
ADCADD_FRZ
100
AcDbText
 10
0.5
 20
5.25
 30
0.0
 40
0.125
  1
HCOIL_DEFAULT_VALUES
100
AcDbText
1001
TB_S_MPD
1070
   100
1000
HCOIL
1070
   101
1000
TOOLBOX 12.0 HCOIL 1.0
1070
   102
1000
Near side
1070
   103
1000
ANSI-Fraction
1070
   104
1000
hc10
1070
   116
1000
1
1070
   119
1000
1
1070
   117
1000
1
1070
   118
1000
1
1070
   310
1040
118.0
1070
   105
1000
<Current>
1070
   106
1000
HIDDEN
1070
   107
1000
CENTER
1070
   300
1040
0.125
1070
   113
1000
1
1070
   108
1000
1
1070
   109
1000
1
1070
   302
1040
0.0
1070
   303
1040
0.0
1070
   304
1040
0.0
1070
   305
1040
120.0
  0
TEXT
  5
661
330
C90E73C08D47C637
100
AcDbEntity
  8
ADCADD_FRZ
100
AcDbText
 10
0.4695575471589253
 20
5.000842800147283
 30
0.0
 40
0.125
  1
BMAT_DEFAULT_VALUES
100
AcDbText
1001
TB_S_MPD
1070
   100
1000
BMAT
1070
   101
1000
TOOLBOX 12.0 BMAT 12.0
1070
   104
1000
Plain
1070
   300
1040
0.6875
1070
   105
1000
1
1070
   301
1040
0.0
1070
   106
1000
DEFAULT
1070
   107
1000
TOOLBOX
1070
   302
1040
0.25
1070
   303
1040
0.0625
1070
   108
1000
1
1070
   109
1000
1
1070
   110
1000
1
1070
   111
1000
1
1070
   199
1000
Conv
1070
   112
1000
0
  0
TEXT
  5
662
330
C90E73C08D47C637
100
AcDbEntity
  8
ADCADD_FRZ
100
AcDbText
 10
0.4710021509630132
 20
4.758782586510267
 30
0.0
 40
0.125
  1
TOLERANCE_DEFAULT_VALUES
100
AcDbText
1001
TB_S_MPD
1070
   100
1000
TOLERANCE
1070
   101
1000
TOOLBOX 12.0 TOLERANCE 12.0
1070
   102
1000
(0.005 0.0 0.01 0.0 0.01 0.0 0.01 0.005)
1070
   103
1000
(0.005 0.0 0.01 0.0 0.01 0.005)
  0
TEXT
  5
663
330
C90E73C08D47C637
100
AcDbEntity
  8
ADCADD_FRZ
100
AcDbText
 10
4.72175633421155
 20
7.75
 30
0.0
 40
0.125
  1
HARDWARE1_DEFAULT_VALUES
100
AcDbText
1001
TB_S_MPD
1070
   100
1000
HARDWARE1
1070
   101
1000
TOOLBOX 12.0 HARDWARE1 1.0
1070
   102
1000
Near side
1070
   103
1000
ANSI-Fraction
1070
   104
1000
shcs
1070
   105
1000
<Current>
1070
   106
1000
HIDDEN
1070
   107
1000
CENTER
1070
   300
1040
0.125
1070
   108
1000
1
1070
   109
1000
1
1070
   113
1000
1
1070
   114
1000
1
1070
   117
1000
1
1070
   118
1000
1
1070
   119
1000
Hex
1070
   199
1000
Conv
  0
TEXT
  5
664
330
C90E73C08D47C637
100
AcDbEntity
  8
ADCADD_FRZ
100
AcDbText
 10
4.75
 20
8.5
 30
0.0
 40
0.125
  1
USERLIB_DEFAULT_VALUES
100
AcDbText
1001
TB_S_MPD
1070
   100
1000
USERLIB
1070
   101
1000
TOOLBOX 12.0 USERLIB 12.0
1070
   110
1000
1
1070
   111
1000
1
1070
   112
1000
1
1070
   113
1000
0
1070
   118
1000
1
1070
   114
1000
1
  0
TEXT
  5
665
330
C90E73C08D47C637
100
AcDbEntity
  8
ADCADD_FRZ
100
AcDbText
 10
4.72175633421155
 20
8.239130433871544
 30
0.0
 40
0.125
  1
PTDIM_DEFAULT_VALUES
100
AcDbText
1001
TB_S_MPD
1070
   100
1000
PTDIM
1070
   101
1000
TOOLBOX 12.0 PTDIM 12.0
1070
   102
1000
(
1070
   103
1000
0
1070
   105
1000
TOOLBOX
1070
   301
1040
0.125
1070
   108
1000
4
1070
   109
1000
0
1070
   110
1000
1
1070
   199
1000
Conv
  0
TEXT
  5
666
330
C90E73C08D47C637
100
AcDbEntity
  8
ADCADD_FRZ
100
AcDbText
 10
4.72175633421155
 20
8.0
 30
0.0
 40
0.125
  1
SLINE_DEFAULT_VALUES
100
AcDbText
1001
TB_S_MPD
1070
   100
1000
SLINE
1070
   101
1000
TOOLBOX 12.0 SLINE 12.0
1070
   102
1000
TOOLBOX
1070
   301
1040
0.125
1070
   302
1040
0.1875
1070
   303
1040
0.5
1070
   103
1000
PHANTOM
1070
   104
1000
2
1070
   304
1040
0.0
1070
   199
1000
Conv
  0
TEXT
  5
667
330
C90E73C08D47C637
100
AcDbEntity
  8
ADCADD_FRZ
100
AcDbText
 10
4.72175633421155
 20
7.5
 30
0.0
 40
0.125
  1
HARDWARE2_DEFAULT_VALUES
100
AcDbText
1001
TB_S_MPD
1070
   100
1000
HARDWARE2
1070
   101
1000
TOOLBOX 12.0 HARDWARE2 1.0
1070
   102
1000
Near side
1070
   103
1000
ANSI-Fraction
1070
   104
1000
hnr_
1070
   105
1000
<Current>
1070
   106
1000
HIDDEN
1070
   107
1000
CENTER
1070
   300
1040
0.125
1070
   108
1000
1
1070
   109
1000
1
1070
   113
1000
1
1070
   117
1000
1
1070
   118
1000
1
1070
   119
1000
Bearing
  0
TEXT
  5
66A
330
C90E73C08D47C637
100
AcDbEntity
  8
ADCADD_FRZ
100
AcDbText
 10
4.72175633421155
 20
7.25
 30
0.0
 40
0.125
  1
HARDWARE3_DEFAULT_VALUES
100
AcDbText
1001
TB_S_MPD
1070
   100
1000
HARDWARE3
1070
   101
1000
TOOLBOX 12.0 HARDWARE3 1.0
1070
   102
1000
Near side
1070
   103
1000
ANSI-Fraction
1070
   104
1000
dpm_
1070
   105
1000
<Current>
1070
   106
1000
HIDDEN
1070
   107
1000
CENTER
1070
   300
1040
0.125
1070
   108
1000
1
1070
   109
1000
1
1070
   113
1000
1
1070
   117
1000
1
1070
   118
1000
1
1070
   119
1000
No options
  0
TEXT
  5
66B
330
C90E73C08D47C637
100
AcDbEntity
  8
ADCADD_FRZ
100
AcDbText
 10
4.72175633421155
 20
7.0
 30
0.0
 40
0.125
  1
HARDWARE4_DEFAULT_VALUES
100
AcDbText
1001
TB_S_MPD
1070
   100
1000
HARDWARE4
1070
   101
1000
TOOLBOX 12.0 HARDWARE4 1.0
1070
   102
1000
Near side
1070
   103
1000
ANSI-Fraction
1070
   104
1000
ss2_
1070
   105
1000
<Current>
1070
   106
1000
HIDDEN
1070
   107
1000
CENTER
1070
   300
1040
0.125
1070
   108
1000
1
1070
   109
1000
1
1070
   113
1000
1
1070
   114
1000
1
1070
   117
1000
1
1070
   118
1000
1
1070
   119
1000
Hex
  0
TEXT
  5
66C
330
C90E73C08D47C637
100
AcDbEntity
  8
ADCADD_FRZ
100
AcDbText
 10
4.72175633421155
 20
6.75
 30
0.0
 40
0.125
  1
HARDWARE5_DEFAULT_VALUES
100
AcDbText
1001
TB_S_MPD
1070
   100
1000
HARDWARE5
1070
   101
1000
TOOLBOX 12.0 HARDWARE5 1.0
1070
   102
1000
Near side
1070
   103
1000
ANSI-Fraction
1070
   104
1000
fw1_
1070
   105
1000
<Current>
1070
   106
1000
HIDDEN
1070
   107
1000
CENTER
1070
   300
1040
0.125
1070
   108
1000
1
1070
   109
1000
1
1070
   113
1000
1
1070
   117
1000
1
1070
   118
1000
1
1070
   119
1000
No options
  0
TEXT
  5
66D
330
C90E73C08D47C637
100
AcDbEntity
  8
ADCADD_FRZ
100
AcDbText
 10
4.72175633421155
 20
6.5
 30
0.0
 40
0.125
  1
GEAR_DEFAULT_VALUES
100
AcDbText
1001
TB_S_MPD
1070
   100
1000
GEAR
1070
   101
1000
TOOLBOX 12.0 GEAR 12.0
1070
   103
1000
0
1070
   104
1000
0
1070
   105
1000
100
1070
   106
1000
6
1070
   300
1040
8.0
1070
   301
1040
14.5
1070
   107
1000
20000
  0
TEXT
  5
66E
330
C90E73C08D47C637
100
AcDbEntity
  8
ADCADD_FRZ
100
AcDbText
 10
4.72175633421155
 20
6.0
 30
0.0
 40
0.125
  1
CIRCAM_DEFAULT_VALUES
100
AcDbText
1001
TB_S_MPD
1070
   300
1040
1.0
1070
   100
1000
CIRCAM
1070
   101
1000
TOOLBOX 12.0 CIRCAM 12.0
1070
   103
1000
1
1070
   104
1000
1
1070
   105
1000
CT
1070
   106
1000
0
1070
   301
1040
1.0
1070
   302
1040
0.0005
  0
TEXT
  5
66F
330
C90E73C08D47C637
100
AcDbEntity
  8
ADCADD_FRZ
100
AcDbText
 10
4.72175633421155
 20
5.75
 30
0.0
 40
0.125
  1
LINCAM_DEFAULT_VALUES
100
AcDbText
1001
TB_S_MPD
1070
   300
1040
1.0
1070
   100
1000
LINCAM
1070
   101
1000
TOOLBOX 12.0 LINCAM 12.0
1070
   103
1000
1
1070
   104
1000
1
1070
   105
1000
LT
  0
TEXT
  5
671
330
C90E73C08D47C637
100
AcDbEntity
  8
ADCADD_FRZ
100
AcDbText
 10
4.72175633421155
 20
6.25
 30
0.0
 40
0.125
  1
CAM_DEFAULT_VALUES
100
AcDbText
1001
TB_S_MPD
1070
   100
1000
CAM
1070
   101
1000
TOOLBOX 12.0 CAM 12.0
1070
   102
1000
0
  0
TEXT
  5
672
330
C90E73C08D47C637
100
AcDbEntity
  8
ADCADD_FRZ
100
AcDbText
 10
4.72175633421155
 20
5.5
 30
0.0
 40
0.125
  1
THREAD_DEFAULT_VALUES
100
AcDbText
1001
TB_S_MPD
1070
   100
1000
THREAD
1070
   101
1000
TOOLBOX 12.0 THREAD 12.0
1070
   102
1000
0
1070
   103
1000
ANSI-Fraction
1070
   114
1000
1
  0
TEXT
  5
674
330
C90E73C08D47C637
100
AcDbEntity
  8
ADCADD_FRZ
100
AcDbText
 10
0.5
 20
6.75
 30
0.0
 40
0.125
  1
VERTEX_DEFAULT_VALUES
100
AcDbText
1001
TB_S_MPD
1070
   100
1000
VERTEX
1070
   101
1000
TOOLBOX 12.0 VERTEX 12.0
1070
   109
1000
1
1070
   110
1000
4
1070
   111
1000
0
1070
   112
1000
1
1070
   113
1000
0
1070
   114
1000
1
1070
   115
1000
0
1070
   116
1000
1
1070
   199
1000
Conv
  0
TEXT
  5
675
330
C90E73C08D47C637
100
AcDbEntity
  8
ADCADD_FRZ
100
AcDbText
 10
4.72175633421155
 20
5.250842800147283
 30
0.0
 40
0.125
  1
SFINISH_DEFAULT_VALUES
100
AcDbText
1001
TB_S_MPD
1070
   100
1000
SFINISH
1070
   101
1000
TOOLBOX 12.0 SFINISH 12.0
1070
   102
1000
0
1070
   301
1040
0.0
1070
   302
1040
0.0
1070
   303
1040
0.0
  0
TEXT
  5
676
330
C90E73C08D47C637
100
AcDbEntity
  8
ADCADD_FRZ
100
AcDbText
 10
4.72175633421155
 20
5.008782586510267
 30
0.0
 40
0.125
  1
DDIM_DEFAULT_VALUES
100
AcDbText
1001
TB_S_MPD
1070
   100
1000
DDIM
1070
   101
1000
TOOLBOX 12.0 DDIM 12.0
1070
   104
1000
0
1070
   105
1000
0
1070
   106
1000
1
1070
   107
1000
0
1070
   108
1000
0
1070
   300
1040
2.0
1070
   109
1000
0
1070
   110
1000
1
1070
   301
1040
1.0
1070
   302
1040
0.0625
1070
   303
1040
0.0625
1070
   304
1040
0.25
1070
   305
1040
0.25
1070
   111
1000
1
1070
   112
1000
0
1070
   113
1000
0
1070
   114
1000
0
1070
   115
1000
TOOLBOX
1070
   306
1040
0.125
1070
   307
1040
0.125
1070
   116
1000
0
1070
   120
1000

1070
   121
1000

1070
   122
1000

1070
   123
1000
0
1070
   199
1000
Conv
  0
TEXT
  5
677
330
C90E73C08D47C637
100
AcDbEntity
  8
ADCADD_FRZ
100
AcDbText
 10
0.5
 20
7.0
 30
0.0
 40
0.125
  1
SLOT_DEFAULT_VALUES
100
AcDbText
1001
TB_S_MPD
1070
   100
1000
SLOT
1070
   101
1000
TOOLBOX 12.0 SLOT 12.0
1070
   102
1000
Near side
1070
   120
1000
2
1070
   104
1000
0
1070
   116
1000
1
1070
   310
1040
0.0
1070
   306
1040
0.0
1070
   311
1040
0.0
1070
   308
1040
0.0
1070
   117
1000
1
1070
   105
1000
<Current>
1070
   106
1000
HIDDEN
1070
   107
1000
CENTER
1070
   300
1040
0.125
1070
   113
1000
1
1070
   108
1000
1
1070
   109
1000
1
  0
TEXT
  5
679
330
C90E73C08D47C637
100
AcDbEntity
  8
ADCADD_FRZ
100
AcDbText
 10
0.4405596981219384
 20
4.50962538665755
 30
0.0
 40
0.125
  1
KWAY_DEFAULT_VALUES
100
AcDbText
1001
TB_S_MPD
1070
   100
1000
KWAY
1070
   101
1000
TOOLBOX 12.0 KWAY 1.0
1070
   102
1000
Near side
1070
   103
1000
ANSI-Fraction
1070
   104
1000
kws_
1070
   117
1000
1
1070
   110
1000
0
1070
   105
1000
<Current>
1070
   106
1000
HIDDEN
1070
   107
1000
CENTER
1070
   300
1040
0.125
1070
   113
1000
1
1070
   108
1000
1
1070
   109
1000
1
1070
   302
1040
0.0
1070
   303
1040
0.0
1070
   304
1040
0.0
1070
   305
1040
0.0
  0
TEXT
  5
67A
330
C90E73C08D47C637
100
AcDbEntity
  8
ADCADD_FRZ
100
AcDbText
 10
4.72175633421155
 20
4.75962538665755
 30
0.0
 40
0.125
  1
KSEAT_DEFAULT_VALUES
100
AcDbText
1001
TB_S_MPD
1070
   100
1000
KSEAT
1070
   101
1000
TOOLBOX 12.0 KSEAT 1.0
1070
   102
1000
Near end1
1070
   103
1000
ANSI-Fraction
1070
   104
1000
kws_
1070
   117
1000
1
1070
   105
1000
<Current>
1070
   106
1000
HIDDEN
1070
   107
1000
CENTER
1070
   300
1040
0.125
1070
   113
1000
1
1070
   108
1000
1
1070
   120
1000
2
1070
   121
1000
0
  0
TEXT
  5
67B
330
C90E73C08D47C637
100
AcDbEntity
  8
ADCADD_FRZ
100
AcDbText
 10
0.5
 20
7.75
 30
0.0
 40
0.125
  1
HDIM_DEFAULT_VALUES
100
AcDbText
1001
TB_S_MPD
1070
   100
1000
HDIM
1070
   101
1000
TOOLBOX 12.0 HDIM 12.0
1070
   102
1000
0
1070
   105
1000
TOOLBOX
1070
   106
1000
4
1070
   107
1000
0
1070
   108
1000
1
1070
   109
1000
1
1070
   110
1000
0
1070
   111
1000
0
1070
   199
1000
Conv
  0
TEXT
  5
67C
330
C90E73C08D47C637
100
AcDbEntity
  8
ADCADD_FRZ
100
AcDbText
 10
0.5
 20
7.5
 30
0.0
 40
0.125
  1
HCHART_DEFAULT_VALUES
100
AcDbText
1001
TB_S_MPD
1070
   100
1000
HCHART
1070
   101
1000
TOOLBOX 12.0 HCHART 12.0
1070
   102
1000
0
1070
   105
1000
0
1070
   300
1040
0.125
1070
   301
1040
0.0625
1070
   302
1040
45.0
1070
   303
1040
1.0
1070
   106
1000
3
1070
   107
1000
0
1070
   108
1000
1
1070
   109
1000
1
1070
   199
1000
Conv
  0
TEXT
  5
67D
330
C90E73C08D47C637
100
AcDbEntity
  8
ADCADD_FRZ
100
AcDbText
 10
4.72175633421155
 20
4.50962538665755
 30
0.0
 40
0.125
  1
ORINGGRV_DEFAULT_VALUES
100
AcDbText
1001
TB_S_MPD
1070
   100
1000
ORINGGRV
1070
   101
1000
TOOLBOX 12.0 ORINGGRV 12.0
1070
   301
1040
0.0
1070
   302
1040
0.0
1070
   303
1040
0.0
1070
   304
1040
0.0
1070
   305
1040
0.0
1070
   306
1040
0.0
1070
   307
1040
0.0
1070
   120
1000
1
1070
   102
1000
0
  0
TEXT
  5
67E
330
C90E73C08D47C637
100
AcDbEntity
  8
ADCADD_FRZ
100
AcDbText
 10
4.72175633421155
 20
4.25962538665755
 30
0.0
 40
0.125
  1
RRINGGRV_DEFAULT_VALUES
100
AcDbText
1001
TB_S_MPD
1070
   100
1000
RRINGGRV
1070
   101
1000
TOOLBOX 12.0 RRINGGRV 12.0
1070
   301
1040
0.0
1070
   302
1040
0.0
1070
   303
1040
0.0
1070
   304
1040
0.0
1070
   120
1000
1
1070
   102
1000
0
  0
TEXT
  5
67F
330
C90E73C08D47C637
100
AcDbEntity
  8
ADCADD_FRZ
100
AcDbText
 10
0.5
 20
8.0
 30
0.0
 40
0.125
  1
LAYMGR_DEFAULT_VALUES
100
AcDbText
1001
TB_S_MPD
1070
   100
1000
LAYMGR
1070
   101
1000
TOOLBOX 12.0 LAYMGR 12.0
1070
   150
1000
("BOM" "CONTINUOUS" "2" "1")
1070
   151
1000
("CENTER" "CENTER" "3" "1")
1070
   152
1000
("CHARTS" "CONTINUOUS" "3" "1")
1070
   153
1000
("CONSTRUCT" "CONTINUOUS" "2" "1")
1070
   154
1000
("DIMS" "CONTINUOUS" "3" "1")
1070
   155
1000
("HIDDEN" "HIDDEN" "1" "1")
1070
   156
1000
("HCHARTS" "CONTINUOUS" "3" "1")
1070
   157
1000
("DIMS" "CONTINUOUS" "3" "1")
1070
   158
1000
("OBJECT" "CONTINUOUS" "7" "1")
1070
   159
1000
("SECTION" "PHANTOM" "2" "1")
1070
   199
1000
Conv
  0
TEXT
  5
23ACE2
330
C90E73C08D47C637
100
AcDbEntity
  8
ADCADD_FRZ
100
AcDbText
 10
0.4410000000000001
 20
3.759999999999999
 30
0.0
 40
0.125
  1
MODELER_DEFAULT_VALUES
100
AcDbText
1001
TB_S_MPD
1070
   100
1000
MODELER
1070
   101
1000
TOOLBOX 12.0 MODELER 1.0
1070
   102
1000
0
  0
TEXT
  5
23ACE3
330
C90E73C08D47C637
100
AcDbEntity
  8
ADCADD_FRZ
100
AcDbText
 10
0.4410000000000001
 20
4.259999999999999
 30
0.0
 40
0.125
  1
STEEL_DEFAULT_VALUES
100
AcDbText
1001
TB_S_MPD
1070
   100
1000
STEEL
1070
   101
1000
TOOLBOX 12.0 STEEL 1.0
1070
   102
1000
Section
1070
   103
1000
AISC
1070
   104
1000
C
1070
   105
1000
<Current>
1070
   106
1000
HIDDEN
1070
   116
1000
1
1070
   117
1000
1
1070
   301
1040
29000000.0
  0
TEXT
  5
23ACE4
330
C90E73C08D47C637
100
AcDbEntity
  8
ADCADD_FRZ
100
AcDbText
 10
0.4410000000000001
 20
4.009999999999999
 30
0.0
 40
0.125
  1
DETVIEW_DEFAULT_VALUES
100
AcDbText
1001
TB_S_MPD
1070
   100
1000
DETVIEW
1070
   101
1000
TOOLBOX 12.0 DETVIEW 12.0
1070
   301
1040
5.0
1070
   102
1000
A
1070
   302
1040
0.125
1070
   105
1000
TOOLBOX
1070
   106
1000
DETAIL {1} SCALE: {2}X
1070
   107
1000
SEE DETAIL {1}
  0
TEXT
  5
23ACE5
330
C90E73C08D47C637
100
AcDbEntity
  8
ADCADD_FRZ
100
AcDbText
 10
4.722
 20
4.009999999999999
 30
0.0
 40
0.125
  1
CYLPART_DEFAULT_VALUES
100
AcDbText
1001
TB_S_MPD
1070
   100
1000
CYLPART
1070
   101
1000
TOOLBOX 12.0 CYLPART 12.0
1070
   102
1000
0
1070
   103
1000
0
1070
   104
1000
0
1070
   105
1000
none
1070
   106
1000
d1d2
1070
   107
1000
chamfer
1070
   108
1000
fillet
1070
   109
1000
sharp
1070
   110
1000
1
1070
   301
1040
0.125
1070
   302
1040
0.125
1070
   303
1040
0.25
  0
LWPOLYLINE
  5
C90E73C08D47C87E
330
C90E73C08D47C637
100
AcDbEntity
  8
2
100
AcDbPolyline
 90
        4
 70
     1
 43
0.0
 10
13.2890065829169
 20
18.71007459629484
 10
13.2890065829169
 20
18.05382459629484
 10
10.9839575321491
 20
18.05382459629487
 10
10.98395753214913
 20
18.71007459629487
  0
LWPOLYLINE
  5
C90E73C08D47C87F
330
C90E73C08D47C637
100
AcDbEntity
  8
2
100
AcDbPolyline
 90
        4
 70
     1
 43
0.0
 10
10.98384721344934
 20
12.93684299545194
 10
10.98384721344936
 20
13.59309299545193
 10
13.28889626421713
 20
13.59309299545191
 10
13.28889626421713
 20
12.93684299545191
  0
LWPOLYLINE
  5
C90E73C08D47C880
330
C90E73C08D47C637
100
AcDbEntity
  8
2
100
AcDbPolyline
 90
        4
 70
     1
 43
0.0
 10
18.98154672334224
 20
3.930856070090953
 10
18.32529672334224
 20
3.930856070090953
 10
18.32529672334227
 20
6.235905120858745
 10
18.98154672334227
 20
6.23590512085871
  0
LWPOLYLINE
  5
C90E73C08D47C881
330
C90E73C08D47C637
100
AcDbEntity
  8
2
100
AcDbPolyline
 90
        4
 70
     1
 43
0.0
 10
11.64254675509211
 20
3.930856070090982
 10
10.98629675509211
 20
3.930856070090982
 10
10.98629675509214
 20
6.23590512085891
 10
11.64254675509214
 20
6.235905120858731
  0
INSERT
  5
C90E73C08D47C882
330
C90E73C08D47C637
100
AcDbEntity
  8
3
100
AcDbBlockReference
  2
INSL .5 wide
 10
10.98392173921721
 20
6.267794030638183
 30
0.0
 50
90.0
1001
MTVPROFILELINK
1002
{
1000
#BlockRef=46f06f1d-0x713-4eaf-B6C0-8B686243E28F| 
1002
}
1005
0
  0
INSERT
  5
C90E73C08D47C883
330
C90E73C08D47C637
100
AcDbEntity
  8
3
100
AcDbBlockReference
  2
INSL .5 wide
 10
10.98392173921721
 20
6.415394030638188
 30
0.0
 50
90.0
1001
MTVPROFILELINK
1002
{
1000
#BlockRef=46f06f1d-0x713-4eaf-B6C0-8B686243E28F| 
1002
}
1005
0
  0
INSERT
  5
C90E73C08D47C884
330
C90E73C08D47C637
100
AcDbEntity
  8
3
100
AcDbBlockReference
  2
INSL .5 wide
 10
10.98392173921721
 20
6.562994030638185
 30
0.0
 50
90.0
1001
MTVPROFILELINK
1002
{
1000
#BlockRef=46f06f1d-0x713-4eaf-B6C0-8B686243E28F| 
1002
}
1005
0
  0
INSERT
  5
C90E73C08D47C885
330
C90E73C08D47C637
100
AcDbEntity
  8
3
100
AcDbBlockReference
  2
INSL .5 wide
 10
10.98392173921721
 20
6.710594030638185
 30
0.0
 50
90.0
1001
MTVPROFILELINK
1002
{
1000
#BlockRef=46f06f1d-0x713-4eaf-B6C0-8B686243E28F| 
1002
}
1005
0
  0
INSERT
  5
C90E73C08D47C886
330
C90E73C08D47C637
100
AcDbEntity
  8
3
100
AcDbBlockReference
  2
INSL .5 wide
 10
10.98392173921721
 20
6.858194030638186
 30
0.0
 50
90.0
1001
MTVPROFILELINK
1002
{
1000
#BlockRef=46f06f1d-0x713-4eaf-B6C0-8B686243E28F| 
1002
}
1005
0
  0
INSERT
  5
C90E73C08D47C887
330
C90E73C08D47C637
100
AcDbEntity
  8
3
100
AcDbBlockReference
  2
INSL .5 wide
 10
10.98392173921721
 20
7.005794030638183
 30
0.0
 50
90.0
1001
MTVPROFILELINK
1002
{
1000
#BlockRef=46f06f1d-0x713-4eaf-B6C0-8B686243E28F| 
1002
}
1005
0
  0
INSERT
  5
C90E73C08D47C888
330
C90E73C08D47C637
100
AcDbEntity
  8
3
100
AcDbBlockReference
  2
INSL .5 wide
 10
10.98392173921721
 20
7.153394030638187
 30
0.0
 50
90.0
1001
MTVPROFILELINK
1002
{
1000
#BlockRef=46f06f1d-0x713-4eaf-B6C0-8B686243E28F| 
1002
}
1005
0
  0
INSERT
  5
C90E73C08D47C889
330
C90E73C08D47C637
100
AcDbEntity
  8
3
100
AcDbBlockReference
  2
INSL .5 wide
 10
10.98392173921721
 20
7.300994030638184
 30
0.0
 50
90.0
1001
MTVPROFILELINK
1002
{
1000
#BlockRef=46f06f1d-0x713-4eaf-B6C0-8B686243E28F| 
1002
}
1005
0
  0
INSERT
  5
C90E73C08D47C88A
330
C90E73C08D47C637
100
AcDbEntity
  8
3
100
AcDbBlockReference
  2
INSL .5 wide
 10
10.98392173921721
 20
7.448594030638185
 30
0.0
 50
90.0
1001
MTVPROFILELINK
1002
{
1000
#BlockRef=46f06f1d-0x713-4eaf-B6C0-8B686243E28F| 
1002
}
1005
0
  0
INSERT
  5
C90E73C08D47C88B
330
C90E73C08D47C637
100
AcDbEntity
  8
3
100
AcDbBlockReference
  2
INSL .5 wide
 10
10.98392173921721
 20
7.596194030638185
 30
0.0
 50
90.0
1001
MTVPROFILELINK
1002
{
1000
#BlockRef=46f06f1d-0x713-4eaf-B6C0-8B686243E28F| 
1002
}
1005
0
  0
INSERT
  5
C90E73C08D47C88C
330
C90E73C08D47C637
100
AcDbEntity
  8
3
100
AcDbBlockReference
  2
INSL .5 wide
 10
10.98392173921721
 20
7.743794030638186
 30
0.0
 50
90.0
1001
MTVPROFILELINK
1002
{
1000
#BlockRef=46f06f1d-0x713-4eaf-B6C0-8B686243E28F| 
1002
}
1005
0
  0
INSERT
  5
C90E73C08D47C88D
330
C90E73C08D47C637
100
AcDbEntity
  8
3
100
AcDbBlockReference
  2
INSL .5 wide
 10
10.98392173921721
 20
7.891394030638187
 30
0.0
 50
90.0
1001
MTVPROFILELINK
1002
{
1000
#BlockRef=46f06f1d-0x713-4eaf-B6C0-8B686243E28F| 
1002
}
1005
0
  0
INSERT
  5
C90E73C08D47C88E
330
C90E73C08D47C637
100
AcDbEntity
  8
3
100
AcDbBlockReference
  2
INSL .5 wide
 10
10.98392173921721
 20
8.038994030638184
 30
0.0
 50
90.0
1001
MTVPROFILELINK
1002
{
1000
#BlockRef=46f06f1d-0x713-4eaf-B6C0-8B686243E28F| 
1002
}
1005
0
  0
INSERT
  5
C90E73C08D47C88F
330
C90E73C08D47C637
100
AcDbEntity
  8
3
100
AcDbBlockReference
  2
INSL .5 wide
 10
10.98392173921721
 20
8.186594030638184
 30
0.0
 50
90.0
1001
MTVPROFILELINK
1002
{
1000
#BlockRef=46f06f1d-0x713-4eaf-B6C0-8B686243E28F| 
1002
}
1005
0
  0
INSERT
  5
C90E73C08D47C890
330
C90E73C08D47C637
100
AcDbEntity
  8
3
100
AcDbBlockReference
  2
INSL .5 wide
 10
10.98392173921722
 20
8.330285587300075
 30
0.0
 50
90.0
1001
MTVPROFILELINK
1002
{
1000
#BlockRef=46f06f1d-0x713-4eaf-B6C0-8B686243E28F| 
1002
}
1005
0
  0
INSERT
  5
C90E73C08D47C891
330
C90E73C08D47C637
100
AcDbEntity
  8
3
100
AcDbBlockReference
  2
INSL .5 wide
 10
18.9839217392172
 20
8.330285587300075
 30
0.0
 41
-1.0
 50
270.0
1001
MTVPROFILELINK
1002
{
1000
#BlockRef=46f06f1d-0x713-4eaf-B6C0-8B686243E28F| 
1002
}
1005
0
  0
INSERT
  5
C90E73C08D47C892
330
C90E73C08D47C637
100
AcDbEntity
  8
3
100
AcDbBlockReference
  2
INSL .5 wide
 10
18.9839217392172
 20
8.182685587300074
 30
0.0
 41
-1.0
 50
270.0
1001
MTVPROFILELINK
1002
{
1000
#BlockRef=46f06f1d-0x713-4eaf-B6C0-8B686243E28F| 
1002
}
1005
0
  0
INSERT
  5
C90E73C08D47C893
330
C90E73C08D47C637
100
AcDbEntity
  8
3
100
AcDbBlockReference
  2
INSL .5 wide
 10
18.9839217392172
 20
8.035085587300073
 30
0.0
 41
-1.0
 50
270.0
1001
MTVPROFILELINK
1002
{
1000
#BlockRef=46f06f1d-0x713-4eaf-B6C0-8B686243E28F| 
1002
}
1005
0
  0
INSERT
  5
C90E73C08D47C894
330
C90E73C08D47C637
100
AcDbEntity
  8
3
100
AcDbBlockReference
  2
INSL .5 wide
 10
18.9839217392172
 20
7.887485587300076
 30
0.0
 41
-1.0
 50
270.0
1001
MTVPROFILELINK
1002
{
1000
#BlockRef=46f06f1d-0x713-4eaf-B6C0-8B686243E28F| 
1002
}
1005
0
  0
INSERT
  5
C90E73C08D47C895
330
C90E73C08D47C637
100
AcDbEntity
  8
3
100
AcDbBlockReference
  2
INSL .5 wide
 10
18.9839217392172
 20
7.739885587300076
 30
0.0
 41
-1.0
 50
270.0
1001
MTVPROFILELINK
1002
{
1000
#BlockRef=46f06f1d-0x713-4eaf-B6C0-8B686243E28F| 
1002
}
1005
0
  0
INSERT
  5
C90E73C08D47C896
330
C90E73C08D47C637
100
AcDbEntity
  8
3
100
AcDbBlockReference
  2
INSL .5 wide
 10
18.9839217392172
 20
7.592285587300075
 30
0.0
 41
-1.0
 50
270.0
1001
MTVPROFILELINK
1002
{
1000
#BlockRef=46f06f1d-0x713-4eaf-B6C0-8B686243E28F| 
1002
}
1005
0
  0
INSERT
  5
C90E73C08D47C897
330
C90E73C08D47C637
100
AcDbEntity
  8
3
100
AcDbBlockReference
  2
INSL .5 wide
 10
18.9839217392172
 20
7.444685587300075
 30
0.0
 41
-1.0
 50
270.0
1001
MTVPROFILELINK
1002
{
1000
#BlockRef=46f06f1d-0x713-4eaf-B6C0-8B686243E28F| 
1002
}
1005
0
  0
INSERT
  5
C90E73C08D47C898
330
C90E73C08D47C637
100
AcDbEntity
  8
3
100
AcDbBlockReference
  2
INSL .5 wide
 10
18.9839217392172
 20
7.297085587300074
 30
0.0
 41
-1.0
 50
270.0
1001
MTVPROFILELINK
1002
{
1000
#BlockRef=46f06f1d-0x713-4eaf-B6C0-8B686243E28F| 
1002
}
1005
0
  0
INSERT
  5
C90E73C08D47C899
330
C90E73C08D47C637
100
AcDbEntity
  8
3
100
AcDbBlockReference
  2
INSL .5 wide
 10
18.9839217392172
 20
7.149485587300077
 30
0.0
 41
-1.0
 50
270.0
1001
MTVPROFILELINK
1002
{
1000
#BlockRef=46f06f1d-0x713-4eaf-B6C0-8B686243E28F| 
1002
}
1005
0
  0
INSERT
  5
C90E73C08D47C89A
330
C90E73C08D47C637
100
AcDbEntity
  8
3
100
AcDbBlockReference
  2
INSL .5 wide
 10
18.9839217392172
 20
7.001885587300073
 30
0.0
 41
-1.0
 50
270.0
1001
MTVPROFILELINK
1002
{
1000
#BlockRef=46f06f1d-0x713-4eaf-B6C0-8B686243E28F| 
1002
}
1005
0
  0
INSERT
  5
C90E73C08D47C89B
330
C90E73C08D47C637
100
AcDbEntity
  8
3
100
AcDbBlockReference
  2
INSL .5 wide
 10
18.9839217392172
 20
6.854285587300076
 30
0.0
 41
-1.0
 50
270.0
1001
MTVPROFILELINK
1002
{
1000
#BlockRef=46f06f1d-0x713-4eaf-B6C0-8B686243E28F| 
1002
}
1005
0
  0
INSERT
  5
C90E73C08D47C89C
330
C90E73C08D47C637
100
AcDbEntity
  8
3
100
AcDbBlockReference
  2
INSL .5 wide
 10
18.9839217392172
 20
6.706685587300075
 30
0.0
 41
-1.0
 50
270.0
1001
MTVPROFILELINK
1002
{
1000
#BlockRef=46f06f1d-0x713-4eaf-B6C0-8B686243E28F| 
1002
}
1005
0
  0
INSERT
  5
C90E73C08D47C89D
330
C90E73C08D47C637
100
AcDbEntity
  8
3
100
AcDbBlockReference
  2
INSL .5 wide
 10
18.9839217392172
 20
6.559085587300074
 30
0.0
 41
-1.0
 50
270.0
1001
MTVPROFILELINK
1002
{
1000
#BlockRef=46f06f1d-0x713-4eaf-B6C0-8B686243E28F| 
1002
}
1005
0
  0
INSERT
  5
C90E73C08D47C89E
330
C90E73C08D47C637
100
AcDbEntity
  8
3
100
AcDbBlockReference
  2
INSL .5 wide
 10
18.9839217392172
 20
6.411485587300077
 30
0.0
 41
-1.0
 50
270.0
1001
MTVPROFILELINK
1002
{
1000
#BlockRef=46f06f1d-0x713-4eaf-B6C0-8B686243E28F| 
1002
}
1005
0
  0
INSERT
  5
C90E73C08D47C89F
330
C90E73C08D47C637
100
AcDbEntity
  8
3
100
AcDbBlockReference
  2
INSL .5 wide
 10
18.9839217392172
 20
6.263885587300073
 30
0.0
 41
-1.0
 50
270.0
1001
MTVPROFILELINK
1002
{
1000
#BlockRef=46f06f1d-0x713-4eaf-B6C0-8B686243E28F| 
1002
}
1005
0
  0
INSERT
  5
C90E73C08D47C8A0
330
C90E73C08D47C637
100
AcDbEntity
  8
3
100
AcDbBlockReference
  2
INSL .5 wide
 10
10.79332173921735
 20
18.43007459629486
 30
0.0
1001
MTVPROFILELINK
1002
{
1000
#BlockRef=46f06f1d-0x713-4eaf-B6C0-8B686243E28F| 
1002
}
1005
0
  0
INSERT
  5
C90E73C08D47C8A1
330
C90E73C08D47C637
100
AcDbEntity
  8
3
100
AcDbBlockReference
  2
INSL .5 wide
 10
10.64572173921734
 20
18.43007459629486
 30
0.0
1001
MTVPROFILELINK
1002
{
1000
#BlockRef=46f06f1d-0x713-4eaf-B6C0-8B686243E28F| 
1002
}
1005
0
  0
INSERT
  5
C90E73C08D47C8A2
330
C90E73C08D47C637
100
AcDbEntity
  8
3
100
AcDbBlockReference
  2
INSL .5 wide
 10
10.49812173921734
 20
18.43007459629486
 30
0.0
1001
MTVPROFILELINK
1002
{
1000
#BlockRef=46f06f1d-0x713-4eaf-B6C0-8B686243E28F| 
1002
}
1005
0
  0
INSERT
  5
C90E73C08D47C8A3
330
C90E73C08D47C637
100
AcDbEntity
  8
3
100
AcDbBlockReference
  2
INSL .5 wide
 10
10.35052173921734
 20
18.43007459629486
 30
0.0
1001
MTVPROFILELINK
1002
{
1000
#BlockRef=46f06f1d-0x713-4eaf-B6C0-8B686243E28F| 
1002
}
1005
0
  0
INSERT
  5
C90E73C08D47C8A4
330
C90E73C08D47C637
100
AcDbEntity
  8
3
100
AcDbBlockReference
  2
INSL .5 wide
 10
10.20292173921734
 20
18.43007459629486
 30
0.0
1001
MTVPROFILELINK
1002
{
1000
#BlockRef=46f06f1d-0x713-4eaf-B6C0-8B686243E28F| 
1002
}
1005
0
  0
INSERT
  5
C90E73C08D47C8A5
330
C90E73C08D47C637
100
AcDbEntity
  8
3
100
AcDbBlockReference
  2
INSL .5 wide
 10
10.05532173921735
 20
18.43007459629486
 30
0.0
1001
MTVPROFILELINK
1002
{
1000
#BlockRef=46f06f1d-0x713-4eaf-B6C0-8B686243E28F| 
1002
}
1005
0
  0
INSERT
  5
C90E73C08D47C8A6
330
C90E73C08D47C637
100
AcDbEntity
  8
3
100
AcDbBlockReference
  2
INSL .5 wide
 10
9.907721739217345
 20
18.43007459629486
 30
0.0
1001
MTVPROFILELINK
1002
{
1000
#BlockRef=46f06f1d-0x713-4eaf-B6C0-8B686243E28F| 
1002
}
1005
0
  0
INSERT
  5
C90E73C08D47C8A7
330
C90E73C08D47C637
100
AcDbEntity
  8
3
100
AcDbBlockReference
  2
INSL .5 wide
 10
9.760121739217348
 20
18.43007459629486
 30
0.0
1001
MTVPROFILELINK
1002
{
1000
#BlockRef=46f06f1d-0x713-4eaf-B6C0-8B686243E28F| 
1002
}
1005
0
  0
INSERT
  5
C90E73C08D47C8A8
330
C90E73C08D47C637
100
AcDbEntity
  8
3
100
AcDbBlockReference
  2
INSL .5 wide
 10
9.612521739217344
 20
18.43007459629486
 30
0.0
1001
MTVPROFILELINK
1002
{
1000
#BlockRef=46f06f1d-0x713-4eaf-B6C0-8B686243E28F| 
1002
}
1005
0
  0
INSERT
  5
C90E73C08D47C8A9
330
C90E73C08D47C637
100
AcDbEntity
  8
3
100
AcDbBlockReference
  2
INSL .5 wide
 10
9.464921739217347
 20
18.43007459629486
 30
0.0
1001
MTVPROFILELINK
1002
{
1000
#BlockRef=46f06f1d-0x713-4eaf-B6C0-8B686243E28F| 
1002
}
1005
0
  0
INSERT
  5
C90E73C08D47C8AA
330
C90E73C08D47C637
100
AcDbEntity
  8
3
100
AcDbBlockReference
  2
INSL .5 wide
 10
9.31732173921735
 20
18.43007459629486
 30
0.0
1001
MTVPROFILELINK
1002
{
1000
#BlockRef=46f06f1d-0x713-4eaf-B6C0-8B686243E28F| 
1002
}
1005
0
  0
INSERT
  5
C90E73C08D47C8AB
330
C90E73C08D47C637
100
AcDbEntity
  8
3
100
AcDbBlockReference
  2
INSL .5 wide
 10
9.169721739217346
 20
18.43007459629486
 30
0.0
1001
MTVPROFILELINK
1002
{
1000
#BlockRef=46f06f1d-0x713-4eaf-B6C0-8B686243E28F| 
1002
}
1005
0
  0
INSERT
  5
C90E73C08D47C8AC
330
C90E73C08D47C637
100
AcDbEntity
  8
3
100
AcDbBlockReference
  2
INSL .5 wide
 10
9.022121739217348
 20
18.43007459629486
 30
0.0
1001
MTVPROFILELINK
1002
{
1000
#BlockRef=46f06f1d-0x713-4eaf-B6C0-8B686243E28F| 
1002
}
1005
0
  0
INSERT
  5
C90E73C08D47C8AD
330
C90E73C08D47C637
100
AcDbEntity
  8
3
100
AcDbBlockReference
  2
INSL .5 wide
 10
8.874521739217344
 20
18.43007459629486
 30
0.0
1001
MTVPROFILELINK
1002
{
1000
#BlockRef=46f06f1d-0x713-4eaf-B6C0-8B686243E28F| 
1002
}
1005
0
  0
INSERT
  5
C90E73C08D47C8AE
330
C90E73C08D47C637
100
AcDbEntity
  8
3
100
AcDbBlockReference
  2
INSL .5 wide
 10
8.726921739217347
 20
18.43007459629486
 30
0.0
1001
MTVPROFILELINK
1002
{
1000
#BlockRef=46f06f1d-0x713-4eaf-B6C0-8B686243E28F| 
1002
}
1005
0
  0
LINE
  5
C90E73C08D47C8AF
330
C90E73C08D47C637
100
AcDbEntity
  8
3
100
AcDbLine
 10
9.289421739217347
 20
18.71007459629486
 30
0.0
 11
8.726921739217347
 21
18.71007459629486
 31
0.0
  0
LINE
  5
C90E73C08D47C8B4
330
C90E73C08D47C637
100
AcDbEntity
  8
3
100
AcDbLine
 10
7.733921739217223
 20
8.492905117490224
 30
0.0
 11
10.73392173921725
 21
8.492905117490224
 31
0.0
  0
LINE
  5
C90E73C08D47C8B5
330
C90E73C08D47C637
100
AcDbEntity
  8
3
100
AcDbLine
 10
10.73392173921725
 20
7.930405117490224
 30
0.0
 11
7.733921739217223
 21
7.930405117490209
 31
0.0
  0
LWPOLYLINE
  5
C90E73C08D47C8B6
330
C90E73C08D47C637
100
AcDbEntity
  8
THIN
100
AcDbPolyline
 90
        6
 70
     0
 43
0.0
 10
7.781456773309317
 20
10.25303690850903
 10
10.46043925626327
 20
10.25303690850903
 10
10.52293925626327
 20
10.08131956979311
 10
10.64793925626327
 20
10.42475424722493
 10
10.71043925626327
 20
10.25303690850903
 10
13.38942173921724
 20
10.25303690850902
  0
LINE
  5
C90E73C08D47C8B7
330
C90E73C08D47C637
100
AcDbEntity
  8
3
100
AcDbLine
 10
8.726921739217262
 20
12.93007459629487
 30
0.0
 11
9.289421739217262
 21
12.93007459629487
 31
0.0
  0
LINE
  5
C90E73C08D47C8B8
330
C90E73C08D47C637
100
AcDbEntity
  8
3
100
AcDbLine
 10
9.171921739217225
 20
7.930405117490224
 30
0.0
 11
7.795921739217234
 21
7.930405117490224
 31
0.0
  0
LINE
  5
C90E73C08D47C8B9
330
C90E73C08D47C637
100
AcDbEntity
  8
3
100
AcDbLine
 10
7.795921739217234
 20
4.430405117490224
 30
0.0
 11
9.171921739217225
 21
4.430405117490224
 31
0.0
  0
LINE
  5
C90E73C08D47C8BA
330
C90E73C08D47C637
100
AcDbEntity
  8
3
100
AcDbLine
 10
7.745207639736122
 20
7.904071349612792
 30
0.0
 11
9.222635838698323
 21
4.456738885367656
 31
0.0
  0
LINE
  5
C90E73C08D47C8BB
330
C90E73C08D47C637
100
AcDbEntity
  8
3
100
AcDbLine
 10
7.745207639736122
 20
4.456738885367656
 30
0.0
 11
9.222635838698323
 21
7.904071349612792
 31
0.0
  0
LWPOLYLINE
  5
C90E73C08D47C8BC
330
C90E73C08D47C637
100
AcDbEntity
  8
2
100
AcDbPolyline
 90
        4
 70
     0
 43
0.0
 10
7.733921739217223
 20
9.266051351913844
 10
11.20392175345556
 20
9.266051351913844
 10
11.20392175345556
 20
8.64105135191383
 10
7.733921739217223
 20
8.64105135191383
  0
LWPOLYLINE
  5
C90E73C08D47C8BD
330
C90E73C08D47C637
100
AcDbEntity
  8
3
100
AcDbPolyline
 90
        4
 70
     0
 43
0.0
 10
7.733921739217223
 20
3.930405117490217
 10
10.73392173921725
 20
3.930405117490217
 10
10.73392173921725
 20
4.430405117490217
 10
7.733921739217223
 20
4.430405117490217
  0
LWPOLYLINE
  5
C90E73C08D47C8BE
330
C90E73C08D47C637
100
AcDbEntity
  8
THIN
100
AcDbPolyline
 90
        6
 70
     0
 43
0.0
 10
7.733921739217223
 20
9.366051351913839
 10
7.733921739217223
 20
6.723228234702034
 10
7.562204400501315
 20
6.660728234702034
 10
7.905639077933145
 20
6.535728234702034
 10
7.733921739217223
 20
6.473228234702034
 10
7.733921739217223
 20
3.830405117490215
  0
LINE
  5
C90E73C08D47C8BF
330
C90E73C08D47C637
100
AcDbEntity
  8
3
100
AcDbLine
 10
7.733921739217223
 20
7.868405117490226
 30
0.0
 11
7.733921739217223
 21
6.754478234702055
 31
0.0
  0
LINE
  5
C90E73C08D47C8C0
330
C90E73C08D47C637
100
AcDbEntity
  8
3
100
AcDbLine
 10
7.733921739217223
 20
6.504478234702055
 30
0.0
 11
7.733921739217223
 21
4.492405117490221
 31
0.0
  0
ARC
  5
C90E73C08D47C8C1
330
C90E73C08D47C637
100
AcDbEntity
  8
3
100
AcDbCircle
 10
7.79592173921722
 20
4.492405117490221
 30
0.0
 40
0.0619999999999994
100
AcDbArc
 50
180.0000000000004
 51
270.0000000000008
  0
LINE
  5
C90E73C08D47C8C2
330
C90E73C08D47C637
100
AcDbEntity
  8
3
100
AcDbLine
 10
8.726921739217262
 20
10.25303690850903
 30
0.0
 11
8.726921739217262
 21
12.93007459629487
 31
0.0
  0
LWPOLYLINE
  5
C90E73C08D47C8C3
330
C90E73C08D47C637
100
AcDbEntity
  8
2
100
AcDbPolyline
 90
        4
 70
     0
 43
0.0
 10
8.602455316211448
 20
10.25303690850903
 10
8.602455316211448
 20
13.15446799061225
 10
8.182013802098753
 20
13.15446799061225
 10
7.948424696591674
 20
10.25303690850903
  0
ARC
  5
C90E73C08D47C8C4
330
C90E73C08D47C637
100
AcDbEntity
  8
3
100
AcDbCircle
 10
7.79592173921722
 20
7.868405117490226
 30
0.0
 40
0.0619999999999994
100
AcDbArc
 50
89.9999999999992
 51
180.0
  0
LINE
  5
C90E73C08D47C8C5
330
C90E73C08D47C637
100
AcDbEntity
  8
3
100
AcDbLine
 10
9.233921739217223
 20
4.492405117490221
 30
0.0
 11
9.233921739217223
 21
7.868405117490226
 31
0.0
  0
INSERT
  5
C90E73C08D47C8C6
330
C90E73C08D47C637
100
AcDbEntity
  8
ZPAPER
100
AcDbBlockReference
  2
2X4
 10
10.73392173921722
 20
6.180405117490217
 30
0.0
  0
LWPOLYLINE
  5
C90E73C08D47C8C7
330
C90E73C08D47C637
100
AcDbEntity
  8
3
100
AcDbPolyline
 90
       19
 70
     1
 43
0.0
 10
10.98392173921725
 20
3.905405117490218
 10
9.671421739217237
 20
3.905405117490218
 10
9.671421739217237
 20
3.930405117490217
 10
9.202421739217228
 20
3.930405117490217
 42
0.4142135623730951
 10
9.171421739217237
 20
3.899405117490218
 10
9.171421739217237
 20
3.523905117490215
 42
0.4142135623730951
 10
9.202421739217228
 20
3.492905117490217
 10
9.658581118783672
 20
3.492905117490217
 42
0.1989123673796592
 10
9.680501429000443
 20
3.501984807273437
 10
9.709137586725347
 20
3.530620964998341
 42
-0.2196211598054495
 10
9.733515399333725
 20
3.539603092905352
 42
0.1042901008397237
 10
10.79872344940396
 20
3.677209712478521
 42
-0.1264117829966397
 10
11.01492173921724
 20
3.680405117490217
 10
11.01492173921724
 20
3.711655117490217
 10
11.45292173921724
 20
3.711655117490217
 42
0.4142135623730951
 10
11.48392173921723
 20
3.742655117490215
 10
11.48392173921725
 20
3.899405117490218
 42
0.4142135623730951
 10
11.45292173921724
 20
3.930405117490217
 10
10.98392173921725
 20
3.930405117490217
  0
ARC
  5
C90E73C08D47C8C8
330
C90E73C08D47C637
100
AcDbEntity
  8
3
100
AcDbCircle
 10
9.171921739217225
 20
4.492405117490221
 30
0.0
 40
0.0619999999999998
100
AcDbArc
 50
270.0
 51
359.9999999999996
  0
LINE
  5
C90E73C08D47C8C9
330
C90E73C08D47C637
100
AcDbEntity
  8
3
100
AcDbLine
 10
9.289421739217262
 20
12.93007459629487
 30
0.0
 11
9.289421739217262
 21
10.25303690850902
 31
0.0
  0
LWPOLYLINE
  5
C90E73C08D47C8CA
330
C90E73C08D47C637
100
AcDbEntity
  8
3
100
AcDbPolyline
 90
       19
 70
     1
 43
0.0
 10
13.31442173921724
 20
12.98007459629488
 10
13.31442173921724
 20
11.66757459629489
 10
13.28942173921723
 20
11.66757459629489
 10
13.28942173921723
 20
11.19857459629488
 42
0.4142135623730951
 10
13.32042173921724
 20
11.16757459629489
 10
13.69592173921726
 20
11.16757459629489
 42
0.4142135623730951
 10
13.72692173921723
 20
11.19857459629488
 10
13.72692173921723
 20
11.65473397586133
 42
0.1989123673796592
 10
13.71784204943404
 20
11.6766542860781
 10
13.68920589170912
 20
11.705290443803
 42
-0.2196211598054495
 10
13.6802237638021
 20
11.72966825641138
 42
0.1042901008397237
 10
13.54261714422896
 20
12.79487630648161
 42
-0.1264117829966397
 10
13.53942173921723
 20
13.01107459629488
 10
13.50817173921723
 20
13.01107459629488
 10
13.50817173921723
 20
13.44907459629488
 42
0.4142135623730951
 10
13.47717173921725
 20
13.48007459629488
 10
13.32042173921724
 20
13.48007459629489
 42
0.4142135623730951
 10
13.28942173921723
 20
13.44907459629488
 10
13.28942173921723
 20
12.98007459629488
  0
LWPOLYLINE
  5
C90E73C08D47C8CB
330
C90E73C08D47C637
100
AcDbEntity
  8
3
100
AcDbPolyline
 90
        4
 70
     0
 43
0.0
 10
12.78942173921723
 20
10.25303690850903
 10
12.78942173921723
 20
12.93007459629487
 10
13.28942173921723
 20
12.93007459629487
 10
13.28942173921723
 20
10.25303690850902
  0
INSERT
  5
C90E73C08D47C8CC
330
C90E73C08D47C637
100
AcDbEntity
  8
ZPAPER
100
AcDbBlockReference
  2
2X4
 10
11.03942173921723
 20
12.93007459629487
 30
0.0
 50
90.0
  0
ARC
  5
C90E73C08D47C8CD
330
C90E73C08D47C637
100
AcDbEntity
  8
3
100
AcDbCircle
 10
9.171921739217225
 20
7.868405117490226
 30
0.0
 40
0.0620000000000003
100
AcDbArc
 50
0.0
 51
90.0
  0
LINE
  5
C90E73C08D47C8CE
330
C90E73C08D47C637
100
AcDbEntity
  8
3
100
AcDbLine
 10
10.73392173921725
 20
8.492905117490224
 30
0.0
 11
10.73392173921725
 21
7.930405117490224
 31
0.0
  0
LWPOLYLINE
  5
C90E73C08D47C8CF
330
C90E73C08D47C637
100
AcDbEntity
  8
THIN
100
AcDbPolyline
 90
        6
 70
     0
 43
0.0
 10
13.38942173921735
 20
22.21007459629486
 10
11.10192173921735
 20
22.21007459629486
 10
11.03942173921734
 20
22.38179193501078
 10
10.91442173921735
 20
22.03835725757895
 10
10.85192173921734
 20
22.21007459629486
 10
8.027896050132229
 20
22.21007459629486
  0
LINE
  5
C90E73C08D47C8D0
330
C90E73C08D47C637
100
AcDbEntity
  8
3
100
AcDbLine
 10
8.726921739217347
 20
22.21007459629486
 30
0.0
 11
8.726921739217347
 21
18.71007459629486
 31
0.0
  0
LWPOLYLINE
  5
C90E73C08D47C8D1
330
C90E73C08D47C637
100
AcDbEntity
  8
2
100
AcDbPolyline
 90
        4
 70
     0
 43
0.0
 10
8.298039121860542
 20
22.21007459629486
 10
7.977455316211448
 20
18.22807459629487
 10
8.602455316211448
 20
18.22807459629487
 10
8.602455316211448
 20
22.21007459629486
  0
INSERT
  5
C90E73C08D47C8D2
330
C90E73C08D47C637
100
AcDbEntity
  8
ZPAPER
100
AcDbBlockReference
  2
2X4
 10
12.78942173921735
 20
20.46007459629486
 30
0.0
 41
-1.0
 50
180.0
  0
LINE
  5
C90E73C08D47C8D3
330
C90E73C08D47C637
100
AcDbEntity
  8
3
100
AcDbLine
 10
9.289421739217347
 20
18.71007459629486
 30
0.0
 11
9.289421739217347
 21
22.21007459629486
 31
0.0
  0
INSERT
  5
C90E73C08D47C8D4
330
C90E73C08D47C637
100
AcDbEntity
  8
ZPAPER
100
AcDbBlockReference
  2
2X4
 10
10.78942173921735
 20
20.46007459629486
 30
0.0
 41
-1.0
 50
180.0
  0
LWPOLYLINE
  5
C90E73C08D47C8D5
330
C90E73C08D47C637
100
AcDbEntity
  8
3
100
AcDbPolyline
 90
       19
 70
     1
 43
0.0
 10
13.31442173921724
 20
18.74796993050352
 10
13.31442173921724
 20
20.06046993050352
 10
13.28942173921723
 20
20.06046993050352
 10
13.28942173921723
 20
20.52946993050352
 42
-0.4142135623730951
 10
13.32042173921724
 20
20.56046993050352
 10
13.69592173921726
 20
20.56046993050352
 42
-0.4142135623730951
 10
13.72692173921723
 20
20.52946993050352
 10
13.72692173921723
 20
20.07331055093709
 42
-0.1989123673796592
 10
13.71784204943404
 20
20.0513902407203
 10
13.68920589170912
 20
20.0227540829954
 42
0.2196211598054495
 10
13.6802237638021
 20
19.99837627038703
 42
-0.1042901008397237
 10
13.54261714422896
 20
18.93316822031679
 42
0.1264117829966397
 10
13.53942173921723
 20
18.71696993050352
 10
13.50817173921723
 20
18.71696993050352
 10
13.50817173921723
 20
18.27896993050353
 42
-0.4142135623730951
 10
13.47717173921725
 20
18.24796993050354
 10
13.32042173921724
 20
18.24796993050352
 42
-0.4142135623730951
 10
13.28942173921723
 20
18.27896993050353
 10
13.28942173921723
 20
18.74796993050352
  0
LWPOLYLINE
  5
C90E73C08D47C8D6
330
C90E73C08D47C637
100
AcDbEntity
  8
3
100
AcDbPolyline
 90
        4
 70
     0
 43
0.0
 10
12.78942173921735
 20
22.21007459629486
 10
12.78942173921735
 20
18.71007459629486
 10
13.28942173921735
 20
18.71007459629486
 10
13.28942173921735
 20
22.21007459629486
  0
LINE
  5
C90E73C08D47C8D7
330
C90E73C08D47C637
100
AcDbEntity
  8
3
100
AcDbLine
 10
22.22271298637899
 20
7.904071349612792
 30
0.0
 11
20.74528478741679
 21
4.456738885367656
 31
0.0
  0
LINE
  5
C90E73C08D47C8D8
330
C90E73C08D47C637
100
AcDbEntity
  8
3
100
AcDbLine
 10
22.22271298637899
 20
4.456738885367656
 30
0.0
 11
20.74528478741679
 21
7.904071349612792
 31
0.0
  0
LWPOLYLINE
  5
C90E73C08D47C8D9
330
C90E73C08D47C637
100
AcDbEntity
  8
3
100
AcDbPolyline
 90
       10
 70
     0
 43
0.0
 10
22.2339988868979
 20
6.504478234702062
 10
22.2339988868979
 20
4.492405117490221
 42
-0.4142135623730951
 10
22.17199888689789
 20
4.430405117490224
 10
20.7959988868979
 20
4.430405117490224
 42
-0.4142135623730951
 10
20.7339988868979
 20
4.492405117490221
 10
20.7339988868979
 20
7.868405117490226
 42
-0.4142135623730951
 10
20.7959988868979
 20
7.930405117490224
 10
22.17199888689789
 20
7.930405117490224
 42
-0.4142135623730951
 10
22.2339988868979
 20
7.868405117490226
 10
22.2339988868979
 20
6.754478234702062
  0
LWPOLYLINE
  5
C90E73C08D47C8DA
330
C90E73C08D47C637
100
AcDbEntity
  8
THIN
100
AcDbPolyline
 90
        6
 70
     0
 43
0.0
 10
22.2339988868979
 20
9.428551351913895
 10
22.2339988868979
 20
6.754478234702062
 10
22.06228154818198
 20
6.691978234702048
 10
22.40571622561381
 20
6.566978234702048
 10
22.2339988868979
 20
6.504478234702062
 10
22.2339988868979
 20
3.830405117490215
  0
INSERT
  5
C90E73C08D47C8DB
330
C90E73C08D47C637
100
AcDbEntity
  8
ZPAPER
100
AcDbBlockReference
  2
2X4
 10
19.2339988868979
 20
6.180405117490217
 30
0.0
 41
-1.0
  0
LWPOLYLINE
  5
C90E73C08D47C8DC
330
C90E73C08D47C637
100
AcDbEntity
  8
3
100
AcDbPolyline
 90
        4
 70
     0
 43
0.0
 10
22.2339988868979
 20
3.930405117490217
 10
19.2339988868979
 20
3.930405117490217
 10
19.2339988868979
 20
4.430405117490217
 10
22.2339988868979
 20
4.430405117490217
  0
LWPOLYLINE
  5
C90E73C08D47C8DD
330
C90E73C08D47C637
100
AcDbEntity
  8
3
100
AcDbPolyline
 90
       19
 70
     1
 43
0.0
 10
18.9839988868979
 20
3.905405117490218
 10
20.29649888689789
 20
3.905405117490218
 10
20.29649888689789
 20
3.930405117490217
 10
20.76549888689791
 20
3.930405117490217
 42
-0.4142135623730951
 10
20.79649888689789
 20
3.899405117490218
 10
20.79649888689789
 20
3.523905117490215
 42
-0.4142135623730951
 10
20.76549888689791
 20
3.492905117490217
 10
20.30933950733145
 20
3.492905117490217
 42
-0.1989123673796592
 10
20.28741919711469
 20
3.501984807273437
 10
20.25878303938978
 20
3.530620964998341
 42
0.2196211598054495
 10
20.2344052267814
 20
3.539603092905352
 42
-0.1042901008397237
 10
19.16919717671119
 20
3.677209712478521
 42
0.1264117829966397
 10
18.95299888689791
 20
3.680405117490217
 10
18.95299888689791
 20
3.711655117490217
 10
18.5149988868979
 20
3.711655117490217
 42
-0.4142135623730951
 10
18.48399888689791
 20
3.742655117490215
 10
18.4839988868979
 20
3.899405117490218
 42
-0.4142135623730951
 10
18.5149988868979
 20
3.930405117490217
 10
18.9839988868979
 20
3.930405117490217
  0
LINE
  5
C90E73C08D47C8DE
330
C90E73C08D47C637
100
AcDbEntity
  8
3
100
AcDbLine
 10
22.2339988868979
 20
8.492905117490224
 30
0.0
 11
19.2339988868979
 21
8.492905117490224
 31
0.0
  0
LINE
  5
C90E73C08D47C8DF
330
C90E73C08D47C637
100
AcDbEntity
  8
3
100
AcDbLine
 10
19.2339988868979
 20
7.930405117490224
 30
0.0
 11
22.2339988868979
 21
7.930405117490209
 31
0.0
  0
LWPOLYLINE
  5
C90E73C08D47C8E0
330
C90E73C08D47C637
100
AcDbEntity
  8
2
100
AcDbPolyline
 90
        4
 70
     0
 43
0.0
 10
22.2339988868979
 20
9.266051351913844
 10
18.76392172497886
 20
9.266051351913844
 10
18.76392172497886
 20
8.64105135191383
 10
22.2339988868979
 20
8.64105135191383
  0
MTEXT
  5
C90E73C08D47C8E1
330
C90E73C08D47C637
100
AcDbEntity
  8
DIM
100
AcDbMText
 10
18.61813112452907
 20
18.0511155904885
 30
0.0
 40
0.3375
 41
8.556384958252142
 46
0.0
 71
     5
 72
     5
  1
Harvey Building Products \PDesigner Shapes\PNew Construction Installation\P"J" Channel with Siding \P2 x 4 Construction\P9/16" Sheathing\P1/2" Drywall\P{\H0.8333x;(1/2 Scale)}
  7
TAHOMA
 73
     1
 44
1.0
1001
ACAD
1000
ACAD_MTEXT_DEFINED_HEIGHT_BEGIN
1070
    46
1040
0.0
1000
ACAD_MTEXT_DEFINED_HEIGHT_END
  0
LINE
  5
C90E73C08D47C8E6
330
C90E73C08D47C637
100
AcDbEntity
  8
CYAN
100
AcDbLine
 10
15.04859234134559
 20
7.312905117490256
 30
0.0
 11
17.79642173921723
 21
7.312905117490227
 31
0.0
  0
LINE
  5
C90E73C08D47C8E8
330
C90E73C08D47C637
100
AcDbEntity
  8
CYAN
100
AcDbLine
 10
15.03409101000773
 20
7.187905117490256
 30
0.0
 11
17.79642173921723
 21
7.187905117490227
 31
0.0
  0
LINE
  5
C90E73C08D47C8F7
330
C90E73C08D47C637
100
AcDbEntity
  8
CYAN
100
AcDbLine
 10
15.04244453456695
 20
7.937905117490242
 30
0.0
 11
17.79642173921723
 21
7.937905117490242
 31
0.0
  0
LINE
  5
C90E73C08D47C8F9
330
C90E73C08D47C637
100
AcDbEntity
  8
CYAN
100
AcDbLine
 10
15.05779389697718
 20
8.062905117490242
 30
0.0
 11
17.79642173921723
 21
8.062905117490242
 31
0.0
  0
LINE
  5
C90E73C08D47C8FE
330
C90E73C08D47C637
100
AcDbEntity
  8
CYAN
100
AcDbLine
 10
14.97955327761157
 20
7.312905117490235
 30
0.0
 11
12.17142173921723
 21
7.312905117490227
 31
0.0
  0
LINE
  5
C90E73C08D47C8FF
330
C90E73C08D47C637
100
AcDbEntity
  8
CYAN
100
AcDbLine
 10
14.96505194627371
 20
7.187905117490235
 30
0.0
 11
12.17142173921723
 21
7.187905117490227
 31
0.0
  0
POLYLINE
  5
C90E73C08D47C900
330
C90E73C08D47C637
100
AcDbEntity
  8
THIN
100
AcDb2dPolyline
 66
     1
 10
0.0
 20
0.0
 30
0.0
  0
VERTEX
  5
C90E73C08D47C901
330
C90E73C08D47C900
100
AcDbEntity
  8
THIN
100
AcDbVertex
100
AcDb2dVertex
 10
14.94486582568953
 20
7.017378590649464
 30
0.0
  0
VERTEX
  5
C90E73C08D47C902
330
C90E73C08D47C900
100
AcDbEntity
  8
THIN
100
AcDbVertex
100
AcDb2dVertex
 10
15.00856389699299
 20
7.566449481274894
 30
0.0
  0
VERTEX
  5
C90E73C08D47C903
330
C90E73C08D47C900
100
AcDbEntity
  8
THIN
100
AcDbVertex
100
AcDb2dVertex
 10
14.91419203387858
 20
7.449663867282389
 30
0.0
  0
VERTEX
  5
C90E73C08D47C904
330
C90E73C08D47C900
100
AcDbEntity
  8
THIN
100
AcDbVertex
100
AcDb2dVertex
 10
15.00269621638483
 20
8.170411903428636
 30
0.0
  0
SEQEND
  5
C90E73C08D47C905
330
C90E73C08D47C900
100
AcDbEntity
  8
THIN
  0
POLYLINE
  5
C90E73C08D47C906
330
C90E73C08D47C637
100
AcDbEntity
  8
THIN
100
AcDb2dPolyline
 66
     1
 10
0.0
 20
0.0
 30
0.0
  0
VERTEX
  5
C90E73C08D47C907
330
C90E73C08D47C906
100
AcDbEntity
  8
THIN
100
AcDbVertex
100
AcDb2dVertex
 10
15.01394260421712
 20
7.017703688331003
 30
0.0
  0
VERTEX
  5
C90E73C08D47C908
330
C90E73C08D47C906
100
AcDbEntity
  8
THIN
100
AcDbVertex
100
AcDb2dVertex
 10
15.09755705288325
 20
7.738451724477251
 30
0.0
  0
VERTEX
  5
C90E73C08D47C909
330
C90E73C08D47C906
100
AcDbEntity
  8
THIN
100
AcDbVertex
100
AcDb2dVertex
 10
15.00318518976885
 20
7.621666110484746
 30
0.0
  0
VERTEX
  5
C90E73C08D47C90A
330
C90E73C08D47C906
100
AcDbEntity
  8
THIN
100
AcDbVertex
100
AcDb2dVertex
 10
15.07061437195889
 20
8.170786494021349
 30
0.0
  0
SEQEND
  5
C90E73C08D47C90B
330
C90E73C08D47C906
100
AcDbEntity
  8
THIN
  0
POLYLINE
  5
C90E73C08D47C973
330
C90E73C08D47C637
100
AcDbEntity
  8
THIN
100
AcDb2dPolyline
 66
     1
 10
0.0
 20
0.0
 30
0.0
  0
VERTEX
  5
C90E73C08D47C974
330
C90E73C08D47C973
100
AcDbEntity
  8
THIN
100
AcDbVertex
100
AcDb2dVertex
 10
10.20559894616781
 20
15.67052267500614
 30
0.0
  0
VERTEX
  5
C90E73C08D47C975
330
C90E73C08D47C973
100
AcDbEntity
  8
THIN
100
AcDbVertex
100
AcDb2dVertex
 10
9.484850910021568
 20
15.75413712367227
 30
0.0
  0
VERTEX
  5
C90E73C08D47C976
330
C90E73C08D47C973
100
AcDbEntity
  8
THIN
100
AcDbVertex
100
AcDb2dVertex
 10
9.601636524014073
 20
15.65976526055787
 30
0.0
  0
VERTEX
  5
C90E73C08D47C977
330
C90E73C08D47C973
100
AcDbEntity
  8
THIN
100
AcDbVertex
100
AcDb2dVertex
 10
9.052516140477484
 20
15.72719444274791
 30
0.0
  0
SEQEND
  5
C90E73C08D47C978
330
C90E73C08D47C973
100
AcDbEntity
  8
THIN
  0
POLYLINE
  5
C90E73C08D47C979
330
C90E73C08D47C637
100
AcDbEntity
  8
THIN
100
AcDb2dPolyline
 66
     1
 10
0.0
 20
0.0
 30
0.0
  0
VERTEX
  5
C90E73C08D47C97A
330
C90E73C08D47C979
100
AcDbEntity
  8
THIN
100
AcDbVertex
100
AcDb2dVertex
 10
10.20592404384935
 20
15.60144589647855
 30
0.0
  0
VERTEX
  5
C90E73C08D47C97B
330
C90E73C08D47C979
100
AcDbEntity
  8
THIN
100
AcDbVertex
100
AcDb2dVertex
 10
9.656853153223925
 20
15.66514396778201
 30
0.0
  0
VERTEX
  5
C90E73C08D47C97C
330
C90E73C08D47C979
100
AcDbEntity
  8
THIN
100
AcDbVertex
100
AcDb2dVertex
 10
9.77363876721643
 20
15.5707721046676
 30
0.0
  0
VERTEX
  5
C90E73C08D47C97D
330
C90E73C08D47C979
100
AcDbEntity
  8
THIN
100
AcDbVertex
100
AcDb2dVertex
 10
9.052890731070183
 20
15.65927628717385
 30
0.0
  0
SEQEND
  5
C90E73C08D47C97E
330
C90E73C08D47C979
100
AcDbEntity
  8
THIN
  0
LINE
  5
C90E73C08D47C97F
330
C90E73C08D47C637
100
AcDbEntity
  8
CYAN
100
AcDbLine
 10
10.03192173921717
 20
15.62163201706273
 30
0.0
 11
10.03192173921719
 21
13.98007459629487
 31
0.0
  0
LINE
  5
C90E73C08D47C980
330
C90E73C08D47C637
100
AcDbEntity
  8
CYAN
100
AcDbLine
 10
9.906921739217173
 20
15.63613334840059
 30
0.0
 11
9.906921739217189
 21
13.98007459629486
 31
0.0
  0
LINE
  5
C90E73C08D47C985
330
C90E73C08D47C637
100
AcDbEntity
  8
CYAN
100
AcDbLine
 10
9.156921739217265
 20
15.71437396776619
 30
0.0
 11
9.156921739217265
 21
17.10507459629488
 31
0.0
  0
LINE
  5
C90E73C08D47C986
330
C90E73C08D47C637
100
AcDbEntity
  8
CYAN
100
AcDbLine
 10
9.156921739217265
 20
17.10507459629488
 30
0.0
 11
9.281921739217265
 21
17.10507459629488
 31
0.0
  0
LINE
  5
C90E73C08D47C987
330
C90E73C08D47C637
100
AcDbEntity
  8
CYAN
100
AcDbLine
 10
9.281921739217265
 20
15.69902460535595
 30
0.0
 11
9.281921739217265
 21
17.10507459629488
 31
0.0
  0
LINE
  5
C90E73C08D47C996
330
C90E73C08D47C637
100
AcDbEntity
  8
CYAN
100
AcDbLine
 10
10.03192173921722
 20
15.69067108079673
 30
0.0
 11
10.03192173921726
 21
17.10507459629488
 31
0.0
  0
LINE
  5
C90E73C08D47C997
330
C90E73C08D47C637
100
AcDbEntity
  8
CYAN
100
AcDbLine
 10
10.03192173921726
 20
17.10507459629488
 30
0.0
 11
9.906921739217265
 21
17.10507459629488
 31
0.0
  0
LINE
  5
C90E73C08D47C998
330
C90E73C08D47C637
100
AcDbEntity
  8
CYAN
100
AcDbLine
 10
9.906921739217265
 20
15.70517241213458
 30
0.0
 11
9.906921739217265
 21
17.10507459629488
 31
0.0
  0
LWPOLYLINE
  5
C90E73C08D47C9A1
330
C90E73C08D47C637
100
AcDbEntity
  8
vent
100
AcDbPolyline
 90
        8
 70
     0
 43
0.0
 10
8.738921739217206
 20
14.09239272460497
 10
8.738921739217206
 20
14.11539272460497
 10
8.761921739217202
 20
14.09539272460497
 10
8.761921739217202
 20
14.11539272460497
 10
8.784921739217205
 20
14.09539272460497
 10
8.784921739217205
 20
14.11539272460497
 10
8.807921739217201
 20
14.09539272460497
 10
8.807921739217201
 20
14.09239272460497
  0
LWPOLYLINE
  5
C90E73C08D47C9A2
330
C90E73C08D47C637
100
AcDbEntity
  8
vent
100
AcDbPolyline
 90
        3
 70
     0
 43
0.0
 10
8.755921739217209
 20
13.8635319651113
 10
8.755921739217201
 20
13.94739272460498
 10
8.794778882074348
 20
13.94739272460498
  0
LWPOLYLINE
  5
C90E73C08D47C9A3
330
C90E73C08D47C637
100
AcDbEntity
  8
DIM
100
AcDbPolyline
 90
        4
 70
     1
 43
0.0
 10
8.725921739217193
 20
14.02739272460497
 10
8.725921739217193
 20
13.99239272460496
 42
0.9999999999999998
 10
8.785921739217195
 20
13.99239272460498
 10
8.785921739217195
 20
14.02739272460497
  0
LWPOLYLINE
  5
C90E73C08D47C9A4
330
C90E73C08D47C637
100
AcDbEntity
  8
vent
100
AcDbPolyline
 90
        6
 70
     0
 43
0.0
 10
8.66092173921721
 20
13.82239272460498
 10
8.690921739217211
 20
13.82239272460498
 10
8.769921739217204
 20
13.87239272460497
 10
8.827921739217211
 20
14.04739272460497
 10
8.827921739217211
 20
14.09239272460497
 10
8.66092173921721
 20
14.09239272460497
  0
LWPOLYLINE
  5
C90E73C08D47C9A5
330
C90E73C08D47C637
100
AcDbEntity
  8
vent
100
AcDbPolyline
 90
        4
 70
     1
 43
0.0
 10
8.622921739217206
 20
14.11139272460498
 10
8.622921739217206
 20
13.80339272460497
 10
8.66092173921721
 20
13.80339272460497
 10
8.66092173921721
 20
14.11139272460498
  0
CIRCLE
  5
C90E73C08D47C9A6
330
C90E73C08D47C637
100
AcDbEntity
  8
DIM
100
AcDbCircle
 10
8.755921739217201
 20
13.9922045422225
 30
0.0
 40
0.025
  0
INSERT
  5
C90E73C08D47D007
330
C90E73C08D47C637
100
AcDbEntity
  8
0
100
AcDbBlockReference
  2
Reinforced Bytyl Spacer
 10
9.281921739217251
 20
16.63632459629484
 30
0.0
 50
90.0
1001
MTVPROFILELINK
1002
{
1000
#BlockRef=a5ef8d55-0x5aa4-4a34-B3F3-E96D1A20CB86|
1002
}
1005
0
  0
INSERT
  5
C90E73C08D47D01E
330
C90E73C08D47C637
100
AcDbEntity
  8
0
100
AcDbBlockReference
  2
Reinforced Bytyl Spacer
 10
9.281921739217173
 20
14.4488245962949
 30
0.0
 41
-1.0
 50
90.0
1001
MTVPROFILELINK
1002
{
1000
#BlockRef=a5ef8d55-0x5aa4-4a34-B3F3-E96D1A20CB86| 
1002
}
1005
0
  0
INSERT
  5
C90E73C08D47D022
330
C90E73C08D47C637
100
AcDbEntity
  8
0
100
AcDbBlockReference
  2
Reinforced Bytyl Spacer
 10
12.64017173921727
 20
7.937905117490254
 30
0.0
 41
-1.0
1001
MTVPROFILELINK
1002
{
1000
#BlockRef=a5ef8d55-0x5aa4-4a34-B3F3-E96D1A20CB86| 
1002
}
1005
0
  0
INSERT
  5
C90E73C08D47D023
330
C90E73C08D47C637
100
AcDbEntity
  8
0
100
AcDbBlockReference
  2
Reinforced Bytyl Spacer
 10
17.32767173921719
 20
7.93790511749024
 30
0.0
1001
MTVPROFILELINK
1002
{
1000
#BlockRef=a5ef8d55-0x5aa4-4a34-B3F3-E96D1A20CB86| 
1002
}
1005
0
  0
LWPOLYLINE
  5
C90E73C08D47D0A1
102
{ACAD_REACTORS
330
C90E73C08D47D0A6
102
}
330
C90E73C08D47C637
100
AcDbEntity
  8
THIN
100
AcDbPolyline
 90
        4
 70
     1
 43
0.0
 10
12.41792173921721
 20
8.194905117490275
 10
12.23742173921725
 20
8.194905117490275
 42
0.9999999999999998
 10
12.23742173921725
 20
8.062905117490242
 10
12.41792173921721
 20
8.062905117490242
 42
0.9999999999999998
  0
HATCH
  5
C90E73C08D47D0A6
330
C90E73C08D47C637
100
AcDbEntity
  8
3
100
AcDbHatch
 10
0.0
 20
0.0
 30
0.0
210
0.0
220
0.0
230
1.0
  2
ANSI31
 70
     0
 71
     1
 91
        1
 92
        7
 72
     1
 73
     1
 93
        4
 10
12.41792173921721
 20
8.062905117490242
 42
1.0
 10
12.41792173921721
 20
8.194905117490275
 42
0.0
 10
12.23742173921725
 20
8.194905117490275
 42
1.0
 10
12.23742173921725
 20
8.062905117490242
 42
0.0
 97
        1
330
C90E73C08D47D0A1
 75
     0
 76
     1
 52
0.0
 41
0.25
 77
     0
 78
     1
 53
45.0
 43
4.062500000000003
 44
-0.1304392852429146
 45
-0.0220970869120796
 46
0.0220970869120796
 79
     0
 47
0.0013387605417888
 98
        1
 10
12.3337858819416
 20
8.125394277380053
1001
ACAD
1010
0.0
1020
0.0
1030
0.0
  0
HATCH
  5
C90E73C08D47D106
330
C90E73C08D47C637
100
AcDbEntity
  8
3
100
AcDbHatch
 10
0.0
 20
0.0
 30
0.0
210
0.0
220
0.0
230
1.0
  2
ANSI31
 70
     0
 71
     1
 91
        1
 92
        7
 72
     1
 73
     1
 93
        4
 10
9.156921739217187
 20
14.28907459629486
 42
1.0
 10
9.024921739217154
 20
14.28907459629486
 42
0.0
 10
9.024921739217154
 20
14.10857459629489
 42
1.0
 10
9.156921739217187
 20
14.10857459629489
 42
0.0
 97
        1
330
C90E73C08D47D107
 75
     0
 76
     1
 52
90.0
 41
0.25
 77
     0
 78
     1
 53
135.0
 43
17.35026614195034
 44
5.933652857077646
 45
-0.0220970869120796
 46
-0.0220970869120796
 79
     0
 47
0.0013387605417888
 98
        1
 10
9.094432579327376
 20
14.20493873901924
1001
ACAD
1010
0.0
1020
0.0
1030
0.0
  0
LWPOLYLINE
  5
C90E73C08D47D107
102
{ACAD_REACTORS
330
C90E73C08D47D106
102
}
330
C90E73C08D47C637
100
AcDbEntity
  8
THIN
100
AcDbPolyline
 90
        4
 70
     1
 43
0.0
 10
9.024921739217154
 20
14.28907459629486
 10
9.024921739217154
 20
14.10857459629489
 42
0.9999999999999998
 10
9.156921739217187
 20
14.10857459629489
 10
9.156921739217187
 20
14.28907459629486
 42
0.9999999999999998
  0
HATCH
  5
C90E73C08D47D131
330
C90E73C08D47C637
100
AcDbEntity
  8
3
100
AcDbHatch
 10
0.0
 20
0.0
 30
0.0
210
0.0
220
0.0
230
1.0
  2
ANSI31
 70
     0
 71
     1
 91
        1
 92
        7
 72
     1
 73
     1
 93
        4
 10
17.73042173921721
 20
8.062905117490242
 42
1.0
 10
17.73042173921721
 20
8.194905117490275
 42
0.0
 10
17.54992173921724
 20
8.194905117490275
 42
1.0
 10
17.54992173921724
 20
8.062905117490242
 42
0.0
 97
        1
330
C90E73C08D47D132
 75
     0
 76
     1
 52
0.0
 41
0.25
 77
     0
 78
     1
 53
135.0
 43
25.90534347843446
 44
-0.1304392852429146
 45
0.0220970869120796
 46
0.0220970869120796
 79
     0
 47
0.0013387605417888
 98
        1
 10
17.63405759649286
 20
8.125394277380053
1001
ACAD
1010
0.0
1020
0.0
1030
0.0
  0
LWPOLYLINE
  5
C90E73C08D47D132
102
{ACAD_REACTORS
330
C90E73C08D47D131
102
}
330
C90E73C08D47C637
100
AcDbEntity
  8
THIN
100
AcDbPolyline
 90
        4
 70
     1
 43
0.0
 10
17.54992173921724
 20
8.194905117490275
 10
17.73042173921721
 20
8.194905117490275
 42
-0.9999999999999998
 10
17.73042173921721
 20
8.062905117490242
 10
17.54992173921724
 20
8.062905117490242
 42
-0.9999999999999998
  0
LINE
  5
C90E73C08D47D1B9
330
C90E73C08D47C637
100
AcDbEntity
  8
CYAN
100
AcDbLine
 10
17.79642173921723
 20
8.062905117490242
 30
0.0
 11
17.79642173921723
 21
7.937905117490227
 31
0.0
  0
LINE
  5
C90E73C08D47D1BF
330
C90E73C08D47C637
100
AcDbEntity
  8
CYAN
100
AcDbLine
 10
17.79642173921723
 20
7.187905117490227
 30
0.0
 11
17.79642173921723
 21
7.312905117490227
 31
0.0
  0
LINE
  5
C90E73C08D47D1C5
330
C90E73C08D47C637
100
AcDbEntity
  8
CYAN
100
AcDbLine
 10
12.17142173921723
 20
7.187905117490227
 30
0.0
 11
12.17142173921723
 21
7.312905117490227
 31
0.0
  0
LINE
  5
C90E73C08D47D1CB
330
C90E73C08D47C637
100
AcDbEntity
  8
CYAN
100
AcDbLine
 10
12.17142173921724
 20
7.937905117490245
 30
0.0
 11
12.17142173921723
 21
8.062905117490245
 31
0.0
  0
POLYLINE
  5
C90E73C08D47D1CC
330
C90E73C08D47C637
100
AcDbEntity
  8
CYAN
100
AcDb2dPolyline
 66
     1
 10
0.0
 20
0.0
 30
0.0
  0
VERTEX
  5
C90E73C08D47D1CD
330
C90E73C08D47D1CC
100
AcDbEntity
  8
CYAN
100
AcDbVertex
100
AcDb2dVertex
 10
14.98992173921722
 20
8.062905117490235
 30
0.0
  0
VERTEX
  5
C90E73C08D47D1CE
330
C90E73C08D47D1CC
100
AcDbEntity
  8
CYAN
100
AcDbVertex
100
AcDb2dVertex
 10
12.17142173921723
 20
8.062905117490242
 30
0.0
  0
SEQEND
  5
C90E73C08D47D1CF
330
C90E73C08D47D1CC
100
AcDbEntity
  8
CYAN
  0
POLYLINE
  5
C90E73C08D47D1D0
330
C90E73C08D47C637
100
AcDbEntity
  8
CYAN
100
AcDb2dPolyline
 66
     1
 10
0.0
 20
0.0
 30
0.0
  0
VERTEX
  5
C90E73C08D47D1D1
330
C90E73C08D47D1D0
100
AcDbEntity
  8
CYAN
100
AcDbVertex
100
AcDb2dVertex
 10
14.97457237680697
 20
7.937905117490235
 30
0.0
  0
VERTEX
  5
C90E73C08D47D1D2
330
C90E73C08D47D1D0
100
AcDbEntity
  8
CYAN
100
AcDbVertex
100
AcDb2dVertex
 10
12.17142173921723
 20
7.937905117490242
 30
0.0
  0
SEQEND
  5
C90E73C08D47D1D3
330
C90E73C08D47D1D0
100
AcDbEntity
  8
CYAN
  0
LINE
  5
C90E73C08D47D1FB
330
C90E73C08D47C637
100
AcDbEntity
  8
CYAN
100
AcDbLine
 10
9.281921739217187
 20
13.98007459629487
 30
0.0
 11
9.156921739217187
 21
13.98007459629487
 31
0.0
  0
LINE
  5
C90E73C08D47D201
330
C90E73C08D47C637
100
AcDbEntity
  8
CYAN
100
AcDbLine
 10
10.03192173921718
 20
13.98007459629487
 30
0.0
 11
9.906921739217183
 21
13.98007459629486
 31
0.0
  0
POLYLINE
  5
C90E73C08D47D202
330
C90E73C08D47C637
100
AcDbEntity
  8
CYAN
100
AcDb2dPolyline
 66
     1
 10
0.0
 20
0.0
 30
0.0
  0
VERTEX
  5
C90E73C08D47D203
330
C90E73C08D47D202
100
AcDbEntity
  8
CYAN
100
AcDbVertex
100
AcDb2dVertex
 10
9.156921739217187
 20
15.64650181000624
 30
0.0
  0
VERTEX
  5
C90E73C08D47D204
330
C90E73C08D47D202
100
AcDbEntity
  8
CYAN
100
AcDbVertex
100
AcDb2dVertex
 10
9.156921739217187
 20
13.98007459629487
 30
0.0
  0
SEQEND
  5
C90E73C08D47D205
330
C90E73C08D47D202
100
AcDbEntity
  8
CYAN
  0
POLYLINE
  5
C90E73C08D47D206
330
C90E73C08D47C637
100
AcDbEntity
  8
CYAN
100
AcDb2dPolyline
 66
     1
 10
0.0
 20
0.0
 30
0.0
  0
VERTEX
  5
C90E73C08D47D207
330
C90E73C08D47D206
100
AcDbEntity
  8
CYAN
100
AcDbVertex
100
AcDb2dVertex
 10
9.281921739217187
 20
15.63115244759599
 30
0.0
  0
VERTEX
  5
C90E73C08D47D208
330
C90E73C08D47D206
100
AcDbEntity
  8
CYAN
100
AcDbVertex
100
AcDb2dVertex
 10
9.281921739217187
 20
13.98007459629487
 30
0.0
  0
SEQEND
  5
C90E73C08D47D209
330
C90E73C08D47D206
100
AcDbEntity
  8
CYAN
  0
INSERT
  5
C90E73C08D47D215
330
C90E73C08D47C637
100
AcDbEntity
  8
0
100
AcDbBlockReference
  2
Silicon Small Vertical Top
 10
9.156921739217265
 20
17.10507459629488
 30
0.0
 41
-1.0
1001
MTVPROFILELINK
1002
{
1000
#BlockRef=ec3e45c4-0xbd0e-4c4b-A311-98AC49735647|
1002
}
1005
0
  0
INSERT
  5
C90E73C08D47D240
330
C90E73C08D47C637
100
AcDbEntity
  8
0
100
AcDbBlockReference
  2
Weather Seal
 10
17.46237880489741
 20
8.164905117490249
 30
0.0
1001
MTVPROFILELINK
1002
{
1000
#BlockRef=2dd3111a-0xa67-47b9-857A-46288DA1C1EE|
1002
}
1005
0
  0
INSERT
  5
C90E73C08D47D242
330
C90E73C08D47C637
100
AcDbEntity
  8
0
100
AcDbBlockReference
  2
Weather Seal
 10
12.50546467353702
 20
8.164905117490249
 30
0.0
 41
-1.0
1001
MTVPROFILELINK
1002
{
1000
#BlockRef=2dd3111a-0xa67-47b9-857A-46288DA1C1EE| 
1002
}
1005
0
  0
INSERT
  5
C90E73C08D47D244
330
C90E73C08D47C637
100
AcDbEntity
  8
0
100
AcDbBlockReference
  2
Weather Seal
 10
9.054921739217229
 20
14.45161753061466
 30
0.0
 41
-1.0
 50
90.0
1001
MTVPROFILELINK
1002
{
1000
#BlockRef=2dd3111a-0xa67-47b9-857A-46288DA1C1EE| 
1002
}
1005
0
  0
INSERT
  5
C90E73C08D47D245
330
C90E73C08D47C637
100
AcDbEntity
  8
0
100
AcDbBlockReference
  2
Weather Seal
 10
9.054921739217308
 20
16.90853166197506
 30
0.0
 50
90.0
1001
MTVPROFILELINK
1002
{
1000
#BlockRef=2dd3111a-0xa67-47b9-857A-46288DA1C1EE| 
1002
}
1005
0
  0
LWPOLYLINE
  5
C90E73C08D47D2AD
330
C90E73C08D47C637
100
AcDbEntity
  8
THIN
100
AcDbPolyline
 90
        8
 70
     1
 43
0.0
 10
11.09692173921721
 20
6.62890511749026
 10
11.61892173921722
 20
6.628905117490264
 42
0.4142135623730857
 10
11.63392173921722
 20
6.643905117490264
 10
11.63392173921722
 20
7.163905117490257
 42
0.4142135623730953
 10
11.61892173921722
 20
7.178905117490257
 10
11.09692173921725
 20
7.178905117490257
 42
0.4142135623730839
 10
11.08192173921725
 20
7.163905117490257
 10
11.08192173921721
 20
6.643905117490261
 42
0.4142135623731205
  0
LWPOLYLINE
  5
C90E73C08D47D2AE
330
C90E73C08D47C637
100
AcDbEntity
  8
THIN
100
AcDbPolyline
 90
        8
 70
     1
 43
0.0
 10
11.08192173921722
 20
8.477905117490207
 42
-0.4142135623730951
 10
11.09692173921722
 20
8.492905117490208
 10
11.71592173921723
 20
8.49290511749025
 42
-0.4142135623731151
 10
11.73092173921723
 20
8.47790511749025
 10
11.73092173921723
 20
8.259905117490248
 42
-0.4142135623729563
 10
11.71592173921721
 20
8.24490511749024
 10
11.09692173921721
 20
8.244905117490262
 42
-0.4142135623732337
 10
11.08192173921722
 20
8.259905117490262
  0
LINE
  5
C90E73C08D47D2AF
330
C90E73C08D47C637
100
AcDbEntity
  8
CENTER
  6
CENTER2
 48
0.4
100
AcDbLine
 10
9.988921739217222
 20
8.215348944434204
 30
0.0
 11
9.988921739217222
 21
8.844099428312226
 31
0.0
  0
LINE
  5
C90E73C08D47D2B0
330
C90E73C08D47C637
100
AcDbEntity
  8
HIDDEN
  6
HIDDEN
 48
0.125
100
AcDbLine
 10
9.894921739217213
 20
8.492905117490195
 30
0.0
 11
9.894921739217213
 21
8.572905117490215
 31
0.0
  0
LINE
  5
C90E73C08D47D2B1
330
C90E73C08D47C637
100
AcDbEntity
  8
HIDDEN
  6
HIDDEN
 48
0.125
100
AcDbLine
 10
10.08292173921721
 20
8.492905117490202
 30
0.0
 11
10.08292173921721
 21
8.572905117490215
 31
0.0
  0
LWPOLYLINE
  5
C90E73C08D47D2B2
330
C90E73C08D47C637
100
AcDbEntity
  8
THIN
100
AcDbPolyline
 90
       12
 70
     1
 43
0.0
 10
11.51092173921724
 20
6.333905117490262
 10
11.7169217392172
 20
6.333905117490273
 42
0.4142135623730906
 10
11.7319217392172
 20
6.348905117490273
 10
11.73192173921721
 20
6.466905117490265
 42
0.4142135623731157
 10
11.71692173921721
 20
6.481905117490265
 10
11.64892173921723
 20
6.481905117490262
 42
-0.4142135623730701
 10
11.63392173921723
 20
6.496905117490262
 10
11.63392173921722
 20
6.533905117490254
 42
0.414213562373009
 10
11.61892173921722
 20
6.548905117490251
 10
11.5109217392172
 20
6.548905117490262
 42
0.4142135623731397
 10
11.4959217392172
 20
6.533905117490261
 10
11.49592173921724
 20
6.348905117490263
 42
0.4142135623730836
  0
LWPOLYLINE
  5
C90E73C08D47D2B4
330
C90E73C08D47C637
100
AcDbEntity
  8
THIN
100
AcDbPolyline
 90
        8
 70
     1
 43
0.0
 10
11.82592173921722
 20
8.292905117490274
 42
-0.4142135623730984
 10
11.81092173921721
 20
8.307905117490275
 10
11.81092173921721
 20
8.445905117490266
 42
-0.4142135623730951
 10
11.82592173921722
 20
8.460905117490266
 10
12.41464180775772
 20
8.460905117490234
 42
-0.3394542588633731
 10
12.42913069515206
 20
8.449787403166773
 10
12.46610768370756
 20
8.311787403166775
 42
-0.4931454260313063
 10
12.45161879631323
 20
8.292905117490235
  0
LWPOLYLINE
  5
C90E73C08D47D2B5
330
C90E73C08D47C637
100
AcDbEntity
  8
THIN
100
AcDbPolyline
 90
        8
 70
     1
 43
0.0
 10
11.47231248510175
 20
9.381975669851085
 42
0.3394542588634429
 10
11.46458507849144
 20
9.387905117490268
 10
11.45192173921723
 20
9.387905117490268
 42
0.4142135623729975
 10
11.44392173921723
 20
9.379905117490265
 10
11.4439217392172
 20
8.587905117490212
 42
0.4142135623731549
 10
11.45892173921721
 20
8.572905117490211
 10
11.66955390563403
 20
8.572905117490247
 42
0.4931454260312531
 10
11.68404279302836
 20
8.591787403166785
  0
LWPOLYLINE
  5
C90E73C08D47D2B6
330
C90E73C08D47C637
100
AcDbEntity
  8
THIN
100
AcDbPolyline
 90
       12
 70
     1
 43
0.0
 10
11.7997682597026
 20
7.915473869047017
 42
-0.3401424000459158
 10
11.81092173921724
 20
7.90097544567909
 10
11.81092173921722
 20
7.273905117490263
 42
-0.4142135623730951
 10
11.79592173921722
 20
7.258905117490263
 10
11.09692173921722
 20
7.258905117490259
 42
-0.4142135623730951
 10
11.08192173921722
 20
7.27390511749026
 10
11.08192173921721
 20
8.149905117490275
 42
-0.4142135623730951
 10
11.09692173921721
 20
8.164905117490276
 10
11.69792173921722
 20
8.164905117490276
 42
-0.4142135623731213
 10
11.71292173921722
 20
8.149905117490275
 10
11.71292173921719
 20
7.950054119611271
 42
0.3401424000459496
 10
11.72407521873183
 20
7.935555696243342
  0
LWPOLYLINE
  5
C90E73C08D47D2B8
330
C90E73C08D47C637
100
AcDbEntity
  8
THIN
100
AcDbPolyline
 90
       65
 70
     1
 43
0.0
 10
11.81092173921718
 20
8.025444454456371
 10
11.8109217392172
 20
8.179905117490283
 42
-0.4142135623730864
 10
11.8259217392172
 20
8.194905117490282
 10
12.49742619776409
 20
8.194905117490243
 10
12.50546467353702
 20
8.164905117490249
 10
12.60692173921721
 20
8.164905117490249
 10
12.51326568769795
 20
8.514434260196379
 42
0.3394542588633526
 10
12.45531013812061
 20
8.558905117490224
 10
11.80582054542055
 20
8.558905117490272
 42
-0.3394542588633642
 10
11.79133165802621
 20
8.570022831813735
 10
11.55783766951581
 20
9.441434260196452
 42
0.3394542588634112
 10
11.49988211993846
 20
9.4859051174903
 10
10.79892173921722
 20
9.485905117490212
 42
0.4142135623730951
 10
10.78392173921722
 20
9.470905117490211
 10
10.78392173921722
 20
9.415905117490275
 42
0.4142135623730688
 10
10.81392173921722
 20
9.385905117490276
 10
10.87392173921723
 20
9.385905117490271
 42
0.41421356237303
 10
10.88192173921723
 20
9.393905117490271
 10
10.88192173921723
 20
9.417905117490249
 42
-0.4142135623729325
 10
10.88992173921723
 20
9.425905117490245
 10
10.91290250133076
 20
9.425905117490257
 42
-0.131652497587552
 10
10.92040250133077
 20
9.423895498547024
 10
10.97925890779133
 20
9.389914736433482
 42
0.131652497587376
 10
10.98675890779133
 20
9.387905117490245
 10
11.33092173921722
 20
9.387905117490211
 42
-0.4142135623732339
 10
11.34592173921721
 20
9.37290511749021
 10
11.34592173921722
 20
8.587905117490228
 42
-0.4142135623730951
 10
11.33092173921722
 20
8.572905117490227
 10
9.778921739217242
 20
8.572905117490215
 42
0.9999999999999998
 10
9.778921739217242
 20
8.492905117490202
 10
10.96892173921722
 20
8.492905117490217
 42
-0.4142135623730951
 10
10.98392173921722
 20
8.477905117490216
 10
10.98392173921721
 20
6.250905117490269
 42
0.4142135623729564
 10
10.99892173921722
 20
6.235905117490259
 10
11.16592173921723
 20
6.235905117490267
 42
0.4142135623732338
 10
11.18092173921721
 20
6.250905117490267
 10
11.18092173921721
 20
6.318905117490265
 42
0.4142135623732338
 10
11.16592173921723
 20
6.333905117490258
 10
11.09692173921721
 20
6.333905117490266
 42
-0.4142135623732337
 10
11.08192173921722
 20
6.348905117490266
 10
11.08192173921722
 20
6.515905117490268
 42
-0.4142135623732337
 10
11.09692173921721
 20
6.530905117490261
 10
11.38292173921721
 20
6.530905117490268
 42
-0.4142135623729561
 10
11.39792173921723
 20
6.515905117490268
 10
11.39792173921723
 20
6.348905117490266
 42
-0.4142135623729563
 10
11.38292173921721
 20
6.333905117490258
 10
11.31392173921722
 20
6.333905117490266
 42
0.4142135623729563
 10
11.29892173921721
 20
6.318905117490265
 10
11.29892173921721
 20
6.250905117490267
 42
0.4142135623729564
 10
11.31392173921722
 20
6.235905117490259
 10
11.76992173921721
 20
6.235905117490263
 42
0.4142135623730864
 10
11.82992173921721
 20
6.295905117490262
 10
11.82992173921721
 20
6.594905117490247
 42
0.4931454260309717
 10
11.81103945354067
 20
6.609394004884597
 10
11.75080402489377
 20
6.593253970422898
 42
-0.4931454260309717
 10
11.73192173921723
 20
6.607742857817248
 10
11.73192173921723
 20
7.145905117490263
 42
-0.414213562373234
 10
11.74692173921721
 20
7.160905117490264
 10
11.81492173921723
 20
7.160905117490264
 42
-0.4142135623732339
 10
11.82992173921721
 20
7.145905117490263
 10
11.82992173921721
 20
7.003405117490265
 42
0.9999999999999998
 10
11.90892173921722
 20
7.003405117490265
 10
11.90892173921722
 20
7.976365780524192
 42
0.3401424000459107
 10
11.89776825970259
 20
7.990864203892119
 10
11.82207521873181
 20
8.010946031088442
 42
-0.3401424000459436
  0
ARC
  5
C90E73C08D47D2B9
330
C90E73C08D47C637
100
AcDbEntity
  8
MED
100
AcDbCircle
 10
11.08192173921723
 20
6.903905117490259
 30
0.0
 40
0.015
100
AcDbArc
 50
270.0
 51
90.0
  0
LWPOLYLINE
  5
C90E73C08D47D2C9
330
C90E73C08D47C637
100
AcDbEntity
  8
THIN
100
AcDbPolyline
 90
        8
 70
     1
 43
0.0
 10
18.87092173921723
 20
6.62890511749026
 10
18.34892173921722
 20
6.628905117490264
 42
-0.4142135623730857
 10
18.33392173921722
 20
6.643905117490264
 10
18.33392173921722
 20
7.163905117490257
 42
-0.4142135623730953
 10
18.34892173921722
 20
7.178905117490257
 10
18.87092173921718
 20
7.178905117490257
 42
-0.4142135623730839
 10
18.88592173921718
 20
7.163905117490257
 10
18.88592173921723
 20
6.643905117490261
 42
-0.4142135623731205
  0
LWPOLYLINE
  5
C90E73C08D47D2CA
330
C90E73C08D47C637
100
AcDbEntity
  8
THIN
100
AcDbPolyline
 90
        8
 70
     1
 43
0.0
 10
18.88592173921721
 20
8.477905117490207
 42
0.4142135623730951
 10
18.87092173921721
 20
8.492905117490208
 10
18.25192173921721
 20
8.49290511749025
 42
0.4142135623731151
 10
18.23692173921721
 20
8.47790511749025
 10
18.23692173921721
 20
8.259905117490248
 42
0.4142135623729563
 10
18.25192173921722
 20
8.24490511749024
 10
18.87092173921723
 20
8.244905117490262
 42
0.4142135623732337
 10
18.88592173921721
 20
8.259905117490262
  0
LINE
  5
C90E73C08D47D2CB
330
C90E73C08D47C637
100
AcDbEntity
  8
CENTER
  6
CENTER2
 48
0.4
100
AcDbLine
 10
19.97892173921721
 20
8.215348944434204
 30
0.0
 11
19.97892173921721
 21
8.844099428312226
 31
0.0
  0
LINE
  5
C90E73C08D47D2CC
330
C90E73C08D47C637
100
AcDbEntity
  8
HIDDEN
  6
HIDDEN
 48
0.125
100
AcDbLine
 10
20.07292173921722
 20
8.492905117490195
 30
0.0
 11
20.07292173921722
 21
8.572905117490215
 31
0.0
  0
LINE
  5
C90E73C08D47D2CD
330
C90E73C08D47C637
100
AcDbEntity
  8
HIDDEN
  6
HIDDEN
 48
0.125
100
AcDbLine
 10
19.88492173921722
 20
8.492905117490202
 30
0.0
 11
19.88492173921722
 21
8.572905117490215
 31
0.0
  0
LWPOLYLINE
  5
C90E73C08D47D2CE
330
C90E73C08D47C637
100
AcDbEntity
  8
THIN
100
AcDbPolyline
 90
       12
 70
     1
 43
0.0
 10
18.4569217392172
 20
6.333905117490262
 10
18.25092173921724
 20
6.333905117490273
 42
-0.4142135623730906
 10
18.23592173921723
 20
6.348905117490273
 10
18.23592173921722
 20
6.466905117490265
 42
-0.4142135623731157
 10
18.25092173921722
 20
6.481905117490265
 10
18.3189217392172
 20
6.481905117490262
 42
0.4142135623730701
 10
18.33392173921721
 20
6.496905117490262
 10
18.33392173921722
 20
6.533905117490254
 42
-0.414213562373009
 10
18.34892173921722
 20
6.548905117490251
 10
18.45692173921724
 20
6.548905117490262
 42
-0.4142135623731397
 10
18.47192173921724
 20
6.533905117490261
 10
18.4719217392172
 20
6.348905117490263
 42
-0.4142135623730836
  0
LWPOLYLINE
  5
C90E73C08D47D2CF
330
C90E73C08D47C637
100
AcDbEntity
  8
THIN
100
AcDbPolyline
 90
        8
 70
     1
 43
0.0
 10
18.14192173921722
 20
8.292905117490274
 42
0.4142135623730984
 10
18.15692173921722
 20
8.307905117490275
 10
18.15692173921722
 20
8.445905117490266
 42
0.4142135623730951
 10
18.14192173921722
 20
8.460905117490266
 10
17.55320167067671
 20
8.460905117490234
 42
0.3394542588633731
 10
17.53871278328238
 20
8.449787403166773
 10
17.50173579472687
 20
8.311787403166775
 42
0.4931454260313063
 10
17.51622468212121
 20
8.292905117490235
  0
LWPOLYLINE
  5
C90E73C08D47D2D0
330
C90E73C08D47C637
100
AcDbEntity
  8
THIN
100
AcDbPolyline
 90
        8
 70
     1
 43
0.0
 10
18.49553099333268
 20
9.381975669851085
 42
-0.3394542588634429
 10
18.50325839994299
 20
9.387905117490268
 10
18.51592173921721
 20
9.387905117490268
 42
-0.4142135623729975
 10
18.5239217392172
 20
9.379905117490265
 10
18.52392173921723
 20
8.587905117490212
 42
-0.4142135623731549
 10
18.50892173921723
 20
8.572905117490211
 10
18.29828957280041
 20
8.572905117490247
 42
-0.4931454260312531
 10
18.28380068540607
 20
8.591787403166785
  0
LWPOLYLINE
  5
C90E73C08D47D2D1
330
C90E73C08D47C637
100
AcDbEntity
  8
THIN
100
AcDbPolyline
 90
       12
 70
     1
 43
0.0
 10
18.16807521873183
 20
7.915473869047017
 42
0.3401424000459158
 10
18.1569217392172
 20
7.90097544567909
 10
18.15692173921721
 20
7.273905117490263
 42
0.4142135623730951
 10
18.17192173921721
 20
7.258905117490263
 10
18.87092173921721
 20
7.258905117490259
 42
0.4142135623730951
 10
18.88592173921721
 20
7.27390511749026
 10
18.88592173921723
 20
8.149905117490275
 42
0.4142135623730951
 10
18.87092173921723
 20
8.164905117490276
 10
18.26992173921721
 20
8.164905117490276
 42
0.4142135623731213
 10
18.25492173921721
 20
8.149905117490275
 10
18.25492173921724
 20
7.950054119611271
 42
-0.3401424000459496
 10
18.24376825970261
 20
7.935555696243342
  0
LWPOLYLINE
  5
C90E73C08D47D2D2
330
C90E73C08D47C637
100
AcDbEntity
  8
THIN
100
AcDbPolyline
 90
       65
 70
     1
 43
0.0
 10
18.15692173921726
 20
8.025444454456371
 10
18.15692173921724
 20
8.179905117490283
 42
0.4142135623730864
 10
18.14192173921724
 20
8.194905117490282
 10
17.47041728067034
 20
8.194905117490243
 10
17.46237880489741
 20
8.164905117490249
 10
17.36092173921722
 20
8.164905117490249
 10
17.45457779073649
 20
8.514434260196379
 42
-0.3394542588633526
 10
17.51253334031382
 20
8.558905117490224
 10
18.16202293301389
 20
8.558905117490272
 42
0.3394542588633642
 10
18.17651182040822
 20
8.570022831813735
 10
18.41000580891862
 20
9.441434260196452
 42
-0.3394542588634112
 10
18.46796135849598
 20
9.4859051174903
 10
19.16892173921721
 20
9.485905117490212
 42
-0.4142135623730951
 10
19.18392173921721
 20
9.470905117490211
 10
19.18392173921721
 20
9.415905117490275
 42
-0.4142135623730688
 10
19.15392173921722
 20
9.385905117490276
 10
19.09392173921721
 20
9.385905117490271
 42
-0.41421356237303
 10
19.08592173921721
 20
9.393905117490271
 10
19.0859217392172
 20
9.417905117490249
 42
0.4142135623729325
 10
19.07792173921721
 20
9.425905117490245
 10
19.05494097710368
 20
9.425905117490257
 42
0.131652497587552
 10
19.04744097710367
 20
9.423895498547024
 10
18.9885845706431
 20
9.389914736433482
 42
-0.131652497587376
 10
18.9810845706431
 20
9.387905117490245
 10
18.63692173921721
 20
9.387905117490211
 42
0.4142135623732339
 10
18.62192173921723
 20
9.37290511749021
 10
18.62192173921721
 20
8.587905117490228
 42
0.4142135623730951
 10
18.63692173921721
 20
8.572905117490227
 10
20.1889217392172
 20
8.572905117490215
 42
-0.9999999999999998
 10
20.1889217392172
 20
8.492905117490202
 10
18.99892173921721
 20
8.492905117490217
 42
0.4142135623730951
 10
18.98392173921721
 20
8.477905117490216
 10
18.98392173921722
 20
6.250905117490269
 42
-0.4142135623729564
 10
18.96892173921721
 20
6.235905117490259
 10
18.80192173921721
 20
6.235905117490267
 42
-0.4142135623732338
 10
18.78692173921722
 20
6.250905117490267
 10
18.78692173921722
 20
6.318905117490265
 42
-0.4142135623732338
 10
18.80192173921721
 20
6.333905117490258
 10
18.87092173921723
 20
6.333905117490266
 42
0.4142135623732337
 10
18.88592173921721
 20
6.348905117490266
 10
18.88592173921721
 20
6.515905117490268
 42
0.4142135623732337
 10
18.87092173921723
 20
6.530905117490261
 10
18.58492173921722
 20
6.530905117490268
 42
0.4142135623729561
 10
18.56992173921721
 20
6.515905117490268
 10
18.56992173921721
 20
6.348905117490266
 42
0.4142135623729563
 10
18.58492173921722
 20
6.333905117490258
 10
18.65392173921721
 20
6.333905117490266
 42
-0.4142135623729563
 10
18.66892173921723
 20
6.318905117490265
 10
18.66892173921723
 20
6.250905117490267
 42
-0.4142135623729564
 10
18.65392173921721
 20
6.235905117490259
 10
18.19792173921722
 20
6.235905117490263
 42
-0.4142135623730864
 10
18.13792173921722
 20
6.295905117490262
 10
18.13792173921722
 20
6.594905117490247
 42
-0.4931454260309717
 10
18.15680402489376
 20
6.609394004884597
 10
18.21703945354067
 20
6.593253970422898
 42
0.4931454260309717
 10
18.23592173921721
 20
6.607742857817248
 10
18.23592173921721
 20
7.145905117490263
 42
0.414213562373234
 10
18.22092173921722
 20
7.160905117490264
 10
18.15292173921721
 20
7.160905117490264
 42
0.4142135623732339
 10
18.13792173921722
 20
7.145905117490263
 10
18.13792173921722
 20
7.003405117490265
 42
-0.9999999999999998
 10
18.05892173921721
 20
7.003405117490265
 10
18.05892173921721
 20
7.976365780524192
 42
-0.3401424000459107
 10
18.07007521873185
 20
7.990864203892119
 10
18.14576825970262
 20
8.010946031088442
 42
0.3401424000459436
  0
ARC
  5
C90E73C08D47D2D3
330
C90E73C08D47C637
100
AcDbEntity
  8
MED
100
AcDbCircle
 10
18.8859217392172
 20
6.903905117490259
 30
0.0
 40
0.015
100
AcDbArc
 50
90.0
 51
270.0
  0
LWPOLYLINE
  5
C90E73C08D47D2D5
330
C90E73C08D47C637
100
AcDbEntity
  8
THIN
100
AcDbPolyline
 90
        8
 70
     1
 43
0.0
 10
10.59092173921722
 20
13.04307459629485
 10
10.59092173921721
 20
13.56507459629485
 42
0.4142135623730857
 10
10.57592173921721
 20
13.58007459629485
 10
10.05592173921722
 20
13.58007459629485
 42
0.4142135623730953
 10
10.04092173921722
 20
13.56507459629485
 10
10.04092173921722
 20
13.04307459629489
 42
0.4142135623730839
 10
10.05592173921722
 20
13.02807459629489
 10
10.57592173921722
 20
13.02807459629485
 42
0.4142135623731205
  0
LWPOLYLINE
  5
C90E73C08D47D2D6
330
C90E73C08D47C637
100
AcDbEntity
  8
THIN
100
AcDbPolyline
 90
        8
 70
     1
 43
0.0
 10
8.741921739217271
 20
13.02807459629486
 42
-0.4142135623730951
 10
8.726921739217271
 20
13.04307459629486
 10
8.726921739217228
 20
13.66207459629487
 42
-0.4142135623731151
 10
8.741921739217229
 20
13.67707459629487
 10
8.959921739217231
 20
13.67707459629487
 42
-0.4142135623729563
 10
8.974921739217238
 20
13.66207459629485
 10
8.974921739217217
 20
13.04307459629485
 42
-0.4142135623732337
 10
8.959921739217216
 20
13.02807459629486
  0
LINE
  5
C90E73C08D47D2D7
330
C90E73C08D47C637
100
AcDbEntity
  8
CENTER
  6
CENTER2
 48
0.4
100
AcDbLine
 10
9.004477912273275
 20
11.93507459629486
 30
0.0
 11
8.375727428395252
 21
11.93507459629486
 31
0.0
  0
LINE
  5
C90E73C08D47D2D8
330
C90E73C08D47C637
100
AcDbEntity
  8
HIDDEN
  6
HIDDEN
 48
0.125
100
AcDbLine
 10
8.726921739217283
 20
11.84107459629485
 30
0.0
 11
8.646921739217264
 21
11.84107459629485
 31
0.0
  0
LINE
  5
C90E73C08D47D2D9
330
C90E73C08D47C637
100
AcDbEntity
  8
HIDDEN
  6
HIDDEN
 48
0.125
100
AcDbLine
 10
8.726921739217276
 20
12.02907459629485
 30
0.0
 11
8.646921739217264
 21
12.02907459629485
 31
0.0
  0
LWPOLYLINE
  5
C90E73C08D47D2DA
330
C90E73C08D47C637
100
AcDbEntity
  8
THIN
100
AcDbPolyline
 90
       12
 70
     1
 43
0.0
 10
10.88592173921721
 20
13.45707459629488
 10
10.8859217392172
 20
13.66307459629484
 42
0.4142135623730906
 10
10.8709217392172
 20
13.67807459629484
 10
10.75292173921721
 20
13.67807459629485
 42
0.4142135623731157
 10
10.73792173921721
 20
13.66307459629485
 10
10.73792173921721
 20
13.59507459629487
 42
-0.4142135623730701
 10
10.72292173921721
 20
13.58007459629487
 10
10.68592173921722
 20
13.58007459629485
 42
0.414213562373009
 10
10.67092173921722
 20
13.56507459629485
 10
10.67092173921722
 20
13.45707459629484
 42
0.4142135623731397
 10
10.68592173921722
 20
13.44207459629483
 10
10.87092173921721
 20
13.44207459629488
 42
0.4142135623730836
  0
LWPOLYLINE
  5
C90E73C08D47D2DB
330
C90E73C08D47C637
100
AcDbEntity
  8
THIN
100
AcDbPolyline
 90
        8
 70
     1
 43
0.0
 10
8.926921739217204
 20
13.77207459629486
 42
-0.4142135623730984
 10
8.911921739217204
 20
13.75707459629486
 10
8.773921739217213
 20
13.75707459629486
 42
-0.4142135623730951
 10
8.758921739217212
 20
13.77207459629486
 10
8.758921739217244
 20
14.36079466483536
 42
-0.3394542588633731
 10
8.770039453540706
 20
14.3752835522297
 10
8.908039453540704
 20
14.4122605407852
 42
-0.4931454260313063
 10
8.926921739217243
 20
14.39777165339086
  0
LWPOLYLINE
  5
C90E73C08D47D2DC
330
C90E73C08D47C637
100
AcDbEntity
  8
THIN
100
AcDbPolyline
 90
        8
 70
     1
 43
0.0
 10
7.837851186856394
 20
13.41846534217939
 42
0.3394542588634429
 10
7.831921739217211
 20
13.41073793556908
 10
7.831921739217211
 20
13.39807459629487
 42
0.4142135623729975
 10
7.839921739217214
 20
13.39007459629487
 10
8.631921739217267
 20
13.39007459629484
 42
0.4142135623731549
 10
8.646921739217267
 20
13.40507459629485
 10
8.646921739217232
 20
13.61570676271167
 42
0.4931454260312531
 10
8.628039453540694
 20
13.630195650106
  0
LWPOLYLINE
  5
C90E73C08D47D2DD
330
C90E73C08D47C637
100
AcDbEntity
  8
THIN
100
AcDbPolyline
 90
       12
 70
     1
 43
0.0
 10
9.304352987660461
 20
13.74592111678024
 42
-0.3401424000459158
 10
9.318851411028388
 20
13.75707459629488
 10
9.945921739217215
 20
13.75707459629486
 42
-0.4142135623730951
 10
9.960921739217216
 20
13.74207459629486
 10
9.960921739217219
 20
13.04307459629486
 42
-0.4142135623730951
 10
9.945921739217219
 20
13.02807459629486
 10
9.069921739217203
 20
13.02807459629485
 42
-0.4142135623730951
 10
9.054921739217203
 20
13.04307459629485
 10
9.054921739217203
 20
13.64407459629486
 42
-0.4142135623731213
 10
9.069921739217203
 20
13.65907459629486
 10
9.269772737096207
 20
13.65907459629484
 42
0.3401424000459496
 10
9.284271160464136
 20
13.67022807580947
  0
LWPOLYLINE
  5
C90E73C08D47D2DE
330
C90E73C08D47C637
100
AcDbEntity
  8
THIN
100
AcDbPolyline
 90
       65
 70
     1
 43
0.0
 10
9.194382402251108
 20
13.75707459629482
 10
9.039921739217195
 20
13.75707459629484
 42
-0.4142135623730864
 10
9.024921739217196
 20
13.77207459629484
 10
9.024921739217235
 20
14.44357905484173
 10
9.054921739217229
 20
14.45161753061466
 10
9.054921739217229
 20
14.55307459629485
 10
8.705392596511099
 20
14.45941854477559
 42
0.3394542588633526
 10
8.660921739217254
 20
14.40146299519825
 10
8.660921739217206
 20
13.75197340249818
 42
-0.3394542588633642
 10
8.649804024893743
 20
13.73748451510385
 10
7.778392596511025
 20
13.50399052659345
 42
0.3394542588634112
 10
7.73392173921718
 20
13.4460349770161
 10
7.733921739217265
 20
12.74507459629486
 42
0.4142135623730951
 10
7.748921739217266
 20
12.73007459629486
 10
7.803921739217202
 20
12.73007459629486
 42
0.4142135623730688
 10
7.833921739217203
 20
12.76007459629486
 10
7.83392173921721
 20
12.82007459629487
 42
0.41421356237303
 10
7.825921739217207
 20
12.82807459629487
 10
7.801921739217227
 20
12.82807459629487
 42
-0.4142135623729325
 10
7.793921739217232
 20
12.83607459629487
 10
7.793921739217221
 20
12.85905535840839
 42
-0.131652497587552
 10
7.795931358160455
 20
12.86655535840841
 10
7.829912120273995
 20
12.92541176486897
 42
0.131652497587376
 10
7.831921739217236
 20
12.93291176486897
 10
7.831921739217268
 20
13.27707459629486
 42
-0.4142135623732339
 10
7.846921739217268
 20
13.29207459629484
 10
8.631921739217251
 20
13.29207459629486
 42
-0.4142135623730951
 10
8.646921739217251
 20
13.27707459629486
 10
8.646921739217264
 20
11.72507459629488
 42
0.9999999999999998
 10
8.726921739217276
 20
11.72507459629488
 10
8.726921739217262
 20
12.91507459629486
 42
-0.4142135623730951
 10
8.741921739217263
 20
12.93007459629486
 10
10.96892173921721
 20
12.93007459629485
 42
0.4142135623729564
 10
10.98392173921722
 20
12.94507459629487
 10
10.98392173921721
 20
13.11207459629487
 42
0.4142135623732338
 10
10.96892173921721
 20
13.12707459629486
 10
10.90092173921721
 20
13.12707459629485
 42
0.4142135623732338
 10
10.88592173921722
 20
13.11207459629487
 10
10.88592173921721
 20
13.04307459629485
 42
-0.4142135623732337
 10
10.87092173921721
 20
13.02807459629486
 10
10.70392173921721
 20
13.02807459629486
 42
-0.4142135623732337
 10
10.68892173921722
 20
13.04307459629485
 10
10.68892173921721
 20
13.32907459629485
 42
-0.4142135623729561
 10
10.70392173921721
 20
13.34407459629487
 10
10.87092173921721
 20
13.34407459629487
 42
-0.4142135623729563
 10
10.88592173921722
 20
13.32907459629485
 10
10.88592173921721
 20
13.26007459629486
 42
0.4142135623729563
 10
10.90092173921721
 20
13.24507459629485
 10
10.96892173921721
 20
13.24507459629485
 42
0.4142135623729564
 10
10.98392173921722
 20
13.26007459629487
 10
10.98392173921721
 20
13.71607459629485
 42
0.4142135623730864
 10
10.92392173921721
 20
13.77607459629485
 10
10.62492173921723
 20
13.77607459629485
 42
0.4931454260309717
 10
10.61043285182288
 20
13.75719231061831
 10
10.62657288628458
 20
13.69695688197141
 42
-0.4931454260309717
 10
10.61208399889023
 20
13.67807459629487
 10
10.07392173921721
 20
13.67807459629487
 42
-0.414213562373234
 10
10.05892173921721
 20
13.69307459629485
 10
10.05892173921721
 20
13.76107459629487
 42
-0.4142135623732339
 10
10.07392173921721
 20
13.77607459629485
 10
10.21642173921721
 20
13.77607459629485
 42
0.9999999999999998
 10
10.21642173921721
 20
13.85507459629486
 10
9.243461076183287
 20
13.85507459629486
 42
0.3401424000459107
 10
9.22896265281536
 20
13.84392111678023
 10
9.208880825619036
 20
13.76822807580945
 42
-0.3401424000459436
  0
LWPOLYLINE
  5
C90E73C08D47D2DF
330
C90E73C08D47C637
100
AcDbEntity
  8
THIN
100
AcDbPolyline
 90
        8
 70
     1
 43
0.0
 10
10.59092173921729
 20
18.31707459629487
 10
10.59092173921729
 20
17.79507459629487
 42
-0.4142135623730857
 10
10.57592173921729
 20
17.78007459629487
 10
10.0559217392173
 20
17.78007459629487
 42
-0.4142135623730953
 10
10.0409217392173
 20
17.79507459629487
 10
10.0409217392173
 20
18.31707459629483
 42
-0.4142135623730839
 10
10.0559217392173
 20
18.33207459629483
 10
10.57592173921729
 20
18.33207459629488
 42
-0.4142135623731205
  0
LWPOLYLINE
  5
C90E73C08D47D2E0
330
C90E73C08D47C637
100
AcDbEntity
  8
THIN
100
AcDbPolyline
 90
        8
 70
     1
 43
0.0
 10
8.741921739217348
 20
18.33207459629486
 42
0.4142135623730951
 10
8.726921739217347
 20
18.31707459629486
 10
8.726921739217305
 20
17.69807459629485
 42
0.4142135623731151
 10
8.741921739217305
 20
17.68307459629485
 10
8.959921739217309
 20
17.68307459629485
 42
0.4142135623729563
 10
8.974921739217316
 20
17.69807459629487
 10
8.974921739217295
 20
18.31707459629487
 42
0.4142135623732337
 10
8.959921739217294
 20
18.33207459629486
  0
LINE
  5
C90E73C08D47D2E1
330
C90E73C08D47C637
100
AcDbEntity
  8
CENTER
  6
CENTER2
 48
0.4
100
AcDbLine
 10
9.004477912273353
 20
19.42507459629486
 30
0.0
 11
8.375727428395331
 21
19.42507459629486
 31
0.0
  0
LINE
  5
C90E73C08D47D2E2
330
C90E73C08D47C637
100
AcDbEntity
  8
HIDDEN
  6
HIDDEN
 48
0.125
100
AcDbLine
 10
8.726921739217361
 20
19.51907459629487
 30
0.0
 11
8.646921739217342
 21
19.51907459629487
 31
0.0
  0
LINE
  5
C90E73C08D47D2E3
330
C90E73C08D47C637
100
AcDbEntity
  8
HIDDEN
  6
HIDDEN
 48
0.125
100
AcDbLine
 10
8.726921739217354
 20
19.33107459629487
 30
0.0
 11
8.646921739217342
 21
19.33107459629487
 31
0.0
  0
LWPOLYLINE
  5
C90E73C08D47D2E4
330
C90E73C08D47C637
100
AcDbEntity
  8
THIN
100
AcDbPolyline
 90
       12
 70
     1
 43
0.0
 10
10.88592173921729
 20
17.90307459629485
 10
10.88592173921728
 20
17.69707459629488
 42
-0.4142135623730906
 10
10.87092173921728
 20
17.68207459629488
 10
10.75292173921729
 20
17.68207459629487
 42
-0.4142135623731157
 10
10.73792173921729
 20
17.69707459629487
 10
10.73792173921729
 20
17.76507459629485
 42
0.4142135623730701
 10
10.72292173921729
 20
17.78007459629485
 10
10.6859217392173
 20
17.78007459629487
 42
-0.414213562373009
 10
10.6709217392173
 20
17.79507459629487
 10
10.67092173921729
 20
17.90307459629489
 42
-0.4142135623731397
 10
10.68592173921729
 20
17.91807459629489
 10
10.87092173921729
 20
17.91807459629485
 42
-0.4142135623730836
  0
LWPOLYLINE
  5
C90E73C08D47D2E5
330
C90E73C08D47C637
100
AcDbEntity
  8
THIN
100
AcDbPolyline
 90
        8
 70
     1
 43
0.0
 10
8.926921739217283
 20
17.58807459629487
 42
0.4142135623730984
 10
8.911921739217282
 20
17.60307459629487
 10
8.773921739217291
 20
17.60307459629487
 42
0.4142135623730951
 10
8.75892173921729
 20
17.58807459629487
 10
8.758921739217322
 20
16.99935452775436
 42
0.3394542588633731
 10
8.770039453540784
 20
16.98486564036002
 10
8.908039453540782
 20
16.94788865180452
 42
0.4931454260313063
 10
8.926921739217322
 20
16.96237753919886
  0
LWPOLYLINE
  5
C90E73C08D47D2E6
330
C90E73C08D47C637
100
AcDbEntity
  8
THIN
100
AcDbPolyline
 90
        8
 70
     1
 43
0.0
 10
7.83785118685647
 20
17.94168385041033
 42
-0.3394542588634429
 10
7.831921739217287
 20
17.94941125702064
 10
7.831921739217287
 20
17.96207459629486
 42
-0.4142135623729975
 10
7.83992173921729
 20
17.97007459629485
 10
8.631921739217345
 20
17.97007459629488
 42
-0.4142135623731549
 10
8.646921739217345
 20
17.95507459629487
 10
8.64692173921731
 20
17.74444242987805
 42
-0.4931454260312531
 10
8.628039453540774
 20
17.72995354248372
  0
LWPOLYLINE
  5
C90E73C08D47D2E7
330
C90E73C08D47C637
100
AcDbEntity
  8
THIN
100
AcDbPolyline
 90
       12
 70
     1
 43
0.0
 10
9.304352987660537
 20
17.61422807580948
 42
0.3401424000459158
 10
9.318851411028466
 20
17.60307459629485
 10
9.945921739217292
 20
17.60307459629486
 42
0.4142135623730951
 10
9.960921739217292
 20
17.61807459629486
 10
9.960921739217299
 20
18.31707459629486
 42
0.4142135623730951
 10
9.945921739217299
 20
18.33207459629486
 10
9.06992173921728
 20
18.33207459629488
 42
0.4142135623730951
 10
9.054921739217279
 20
18.31707459629487
 10
9.054921739217279
 20
17.71607459629486
 42
0.4142135623731213
 10
9.06992173921728
 20
17.70107459629486
 10
9.269772737096284
 20
17.70107459629489
 42
-0.3401424000459496
 10
9.284271160464216
 20
17.68992111678026
  0
LWPOLYLINE
  5
C90E73C08D47D2E8
330
C90E73C08D47C637
100
AcDbEntity
  8
THIN
100
AcDbPolyline
 90
       65
 70
     1
 43
0.0
 10
9.194382402251187
 20
17.6030745962949
 10
9.039921739217271
 20
17.60307459629488
 42
0.4142135623730864
 10
9.024921739217274
 20
17.58807459629488
 10
9.024921739217313
 20
16.91657013774799
 10
9.054921739217308
 20
16.90853166197506
 10
9.054921739217308
 20
16.80707459629487
 10
8.705392596511176
 20
16.90073064781413
 42
-0.3394542588633526
 10
8.66092173921733
 20
16.95868619739147
 10
8.660921739217284
 20
17.60817579009154
 42
0.3394542588633642
 10
8.649804024893819
 20
17.62266467748587
 10
7.778392596511105
 20
17.85615866599627
 42
-0.3394542588634112
 10
7.733921739217256
 20
17.91411421557363
 10
7.733921739217345
 20
18.61507459629486
 42
-0.4142135623730951
 10
7.748921739217346
 20
18.63007459629486
 10
7.803921739217281
 20
18.63007459629486
 42
-0.4142135623730688
 10
7.833921739217283
 20
18.60007459629486
 10
7.833921739217286
 20
18.54007459629485
 42
-0.41421356237303
 10
7.825921739217287
 20
18.53207459629486
 10
7.801921739217307
 20
18.53207459629485
 42
0.4142135623729325
 10
7.793921739217312
 20
18.52407459629485
 10
7.793921739217298
 20
18.50109383418133
 42
0.131652497587552
 10
7.795931358160531
 20
18.49359383418131
 10
7.829912120274075
 20
18.43473742772075
 42
-0.131652497587376
 10
7.831921739217312
 20
18.42723742772075
 10
7.831921739217344
 20
18.08307459629487
 42
0.4142135623732339
 10
7.846921739217345
 20
18.06807459629488
 10
8.631921739217327
 20
18.06807459629487
 42
0.4142135623730951
 10
8.646921739217328
 20
18.08307459629487
 10
8.646921739217342
 20
19.63507459629484
 42
-0.9999999999999998
 10
8.726921739217354
 20
19.63507459629484
 10
8.72692173921734
 20
18.44507459629486
 42
0.4142135623730951
 10
8.741921739217341
 20
18.43007459629486
 10
10.96892173921728
 20
18.43007459629487
 42
-0.4142135623729564
 10
10.98392173921729
 20
18.41507459629486
 10
10.98392173921729
 20
18.24807459629486
 42
-0.4142135623732338
 10
10.96892173921728
 20
18.23307459629487
 10
10.90092173921729
 20
18.23307459629487
 42
-0.4142135623732338
 10
10.88592173921729
 20
18.24807459629486
 10
10.88592173921729
 20
18.31707459629487
 42
0.4142135623732337
 10
10.87092173921729
 20
18.33207459629486
 10
10.70392173921729
 20
18.33207459629486
 42
0.4142135623732337
 10
10.68892173921729
 20
18.31707459629487
 10
10.68892173921728
 20
18.03107459629487
 42
0.4142135623729561
 10
10.70392173921729
 20
18.01607459629486
 10
10.87092173921729
 20
18.01607459629486
 42
0.4142135623729563
 10
10.88592173921729
 20
18.03107459629487
 10
10.88592173921729
 20
18.10007459629486
 42
-0.4142135623729563
 10
10.90092173921729
 20
18.11507459629488
 10
10.96892173921728
 20
18.11507459629488
 42
-0.4142135623729564
 10
10.98392173921729
 20
18.10007459629486
 10
10.98392173921729
 20
17.64407459629486
 42
-0.4142135623730864
 10
10.92392173921729
 20
17.58407459629487
 10
10.62492173921731
 20
17.58407459629487
 42
-0.4931454260309717
 10
10.61043285182296
 20
17.60295688197141
 10
10.62657288628465
 20
17.66319231061832
 42
0.4931454260309717
 10
10.6120839988903
 20
17.68207459629486
 10
10.07392173921729
 20
17.68207459629486
 42
0.414213562373234
 10
10.05892173921729
 20
17.66707459629487
 10
10.05892173921729
 20
17.59907459629486
 42
0.4142135623732339
 10
10.07392173921729
 20
17.58407459629487
 10
10.21642173921729
 20
17.58407459629487
 42
-0.9999999999999998
 10
10.21642173921729
 20
17.50507459629486
 10
9.243461076183367
 20
17.50507459629486
 42
-0.3401424000459107
 10
9.228962652815438
 20
17.5162280758095
 10
9.208880825619113
 20
17.59192111678027
 42
0.3401424000459436
  0
LWPOLYLINE
  5
C90E73C08D47D36E
330
C90E73C08D47C637
100
AcDbEntity
  8
10
100
AcDbPolyline
 90
        6
 70
     0
 43
0.0
 10
17.48417905492868
 20
7.089905117490244
 10
17.28795921524223
 20
7.178924234426053
 42
-0.0522813753986091
 10
17.27894014929293
 20
7.184158246923237
 42
0.577370775527271
 10
17.24805792016919
 20
7.170480584825904
 42
0.2998307703621348
 10
17.25562092951724
 20
7.155809239547751
 10
17.37092173921732
 20
7.089905117490259
  0
LWPOLYLINE
  5
C90E73C08D47D36F
330
C90E73C08D47C637
100
AcDbEntity
  8
10
100
AcDbPolyline
 90
       33
 70
     1
 43
0.0
 10
18.19803945354068
 20
6.598345005079101
 10
18.15680402489376
 20
6.609394004884597
 42
0.4931454260312981
 10
18.13792173921722
 20
6.594905117490261
 10
18.13792173921722
 20
6.50690511749026
 42
-0.4142135623730951
 10
18.12292173921722
 20
6.49190511749026
 10
17.38592173921722
 20
6.49190511749026
 42
-0.4142135623730951
 10
17.35592173921722
 20
6.521905117490261
 10
17.35592173921722
 20
7.089905117490259
 10
17.95092173921722
 20
7.089905117490202
 42
-0.4142135623730795
 10
17.98092173921722
 20
7.059905117490201
 10
17.98092173921722
 20
6.978905117490262
 42
0.4142135623730951
 10
17.99592173921722
 20
6.963905117490261
 10
18.12292173921722
 20
6.963905117490261
 42
0.4142135623730951
 10
18.13792173921722
 20
6.978905117490262
 10
18.13792173921722
 20
7.081405117490261
 42
-0.9999999999999998
 10
18.21692173921722
 20
7.081405117490261
 10
18.21692173921722
 20
6.914905117490262
 42
-0.4142135623730951
 10
18.18692173921722
 20
6.88490511749026
 10
17.93192173921722
 20
6.88490511749026
 42
-0.4142135623730951
 10
17.90192173921722
 20
6.914905117490262
 10
17.90192173921722
 20
6.995905117490236
 42
0.4142135623730951
 10
17.88692173921722
 20
7.010905117490237
 10
17.44992173921722
 20
7.010905117490237
 42
0.4142135623730951
 10
17.43492173921722
 20
6.995905117490236
 10
17.43492173921722
 20
6.585905117490261
 42
0.4142135623730951
 10
17.44992173921722
 20
6.57090511749026
 10
18.04392173921722
 20
6.57090511749026
 42
0.4142135623730951
 10
18.05892173921722
 20
6.585905117490261
 10
18.05892173921722
 20
6.658905117490261
 42
-0.4142135623730951
 10
18.08892173921722
 20
6.688905117490262
 10
18.20192173921722
 20
6.688905117490262
 42
-0.4142135623730951
 10
18.21692173921722
 20
6.673905117490262
 10
18.21692173921722
 20
6.612833892473437
 42
-0.4931454260313336
  0
ARC
  5
C90E73C08D47D370
330
C90E73C08D47C637
100
AcDbEntity
  8
10
 48
0.25
100
AcDbCircle
 10
17.63192173921722
 20
7.112905117490226
 30
0.0
 40
0.0749999999999993
100
AcDbArc
 50
342.14153730159
 51
197.8584626983988
  0
LWPOLYLINE
  5
C90E73C08D47D371
330
C90E73C08D47C637
100
AcDbEntity
  8
10
100
AcDbPolyline
 90
        6
 70
     0
 43
0.0
 10
12.48366442350576
 20
7.089905117490244
 10
12.6798842631922
 20
7.178924234426053
 42
0.0522813753986091
 10
12.6889033291415
 20
7.184158246923237
 42
-0.577370775527271
 10
12.71978555826525
 20
7.170480584825904
 42
-0.2998307703621348
 10
12.7122225489172
 20
7.155809239547751
 10
12.59692173921712
 20
7.089905117490259
  0
LWPOLYLINE
  5
C90E73C08D47D372
330
C90E73C08D47C637
100
AcDbEntity
  8
10
100
AcDbPolyline
 90
       33
 70
     1
 43
0.0
 10
11.76980402489375
 20
6.598345005079101
 10
11.81103945354068
 20
6.609394004884597
 42
-0.4931454260312981
 10
11.82992173921721
 20
6.594905117490261
 10
11.82992173921721
 20
6.50690511749026
 42
0.4142135623730951
 10
11.84492173921722
 20
6.49190511749026
 10
12.58192173921721
 20
6.49190511749026
 42
0.4142135623730951
 10
12.61192173921721
 20
6.521905117490261
 10
12.61192173921721
 20
7.089905117490259
 10
12.01692173921721
 20
7.089905117490202
 42
0.4142135623730795
 10
11.98692173921721
 20
7.059905117490201
 10
11.98692173921721
 20
6.978905117490262
 42
-0.4142135623730951
 10
11.97192173921721
 20
6.963905117490261
 10
11.84492173921722
 20
6.963905117490261
 42
-0.4142135623730951
 10
11.82992173921721
 20
6.978905117490262
 10
11.82992173921721
 20
7.081405117490261
 42
0.9999999999999998
 10
11.75092173921721
 20
7.081405117490261
 10
11.75092173921721
 20
6.914905117490262
 42
0.4142135623730951
 10
11.78092173921721
 20
6.88490511749026
 10
12.03592173921721
 20
6.88490511749026
 42
0.4142135623730951
 10
12.06592173921721
 20
6.914905117490262
 10
12.06592173921721
 20
6.995905117490236
 42
-0.4142135623730951
 10
12.08092173921721
 20
7.010905117490237
 10
12.51792173921721
 20
7.010905117490237
 42
-0.4142135623730951
 10
12.53292173921721
 20
6.995905117490236
 10
12.53292173921721
 20
6.585905117490261
 42
-0.4142135623730951
 10
12.51792173921721
 20
6.57090511749026
 10
11.92392173921722
 20
6.57090511749026
 42
-0.4142135623730951
 10
11.90892173921722
 20
6.585905117490261
 10
11.90892173921722
 20
6.658905117490261
 42
0.4142135623730951
 10
11.87892173921722
 20
6.688905117490262
 10
11.76592173921721
 20
6.688905117490262
 42
0.4142135623730951
 10
11.75092173921721
 20
6.673905117490262
 10
11.75092173921721
 20
6.612833892473437
 42
0.4931454260313336
  0
ARC
  5
C90E73C08D47D373
330
C90E73C08D47C637
100
AcDbEntity
  8
10
 48
0.25
100
AcDbCircle
 10
12.33592173921721
 20
7.112905117490226
 30
0.0
 40
0.0749999999999993
100
AcDbArc
 50
342.1415373016012
 51
197.8584626984098
  0
LWPOLYLINE
  5
C90E73C08D47D375
330
C90E73C08D47C637
100
AcDbEntity
  8
10
100
AcDbPolyline
 90
        6
 70
     0
 43
0.0
 10
10.12992173921717
 20
14.42981728058339
 10
10.04090262228136
 20
14.62603712026984
 42
0.0522813753986091
 10
10.03566860978418
 20
14.63505618621914
 42
-0.577370775527271
 10
10.04934627188151
 20
14.66593841534289
 42
-0.2998307703621348
 10
10.06401761715966
 20
14.65837540599483
 10
10.12992173921716
 20
14.54307459629475
  0
LWPOLYLINE
  5
C90E73C08D47D376
330
C90E73C08D47C637
100
AcDbEntity
  8
10
100
AcDbPolyline
 90
       33
 70
     1
 43
0.0
 10
10.62148185162832
 20
13.71595688197139
 10
10.61043285182282
 20
13.75719231061832
 42
-0.4931454260312981
 10
10.62492173921715
 20
13.77607459629486
 10
10.71292173921716
 20
13.77607459629486
 42
0.4142135623730951
 10
10.72792173921716
 20
13.79107459629486
 10
10.72792173921716
 20
14.52807459629485
 42
0.4142135623730951
 10
10.69792173921715
 20
14.55807459629485
 10
10.12992173921716
 20
14.55807459629485
 10
10.12992173921722
 20
13.96307459629485
 42
0.4142135623730795
 10
10.15992173921722
 20
13.93307459629485
 10
10.24092173921715
 20
13.93307459629485
 42
-0.4142135623730951
 10
10.25592173921715
 20
13.91807459629485
 10
10.25592173921715
 20
13.79107459629486
 42
-0.4142135623730951
 10
10.24092173921715
 20
13.77607459629486
 10
10.13842173921716
 20
13.77607459629485
 42
0.9999999999999998
 10
10.13842173921716
 20
13.69707459629486
 10
10.30492173921715
 20
13.69707459629486
 42
0.4142135623730951
 10
10.33492173921715
 20
13.72707459629485
 10
10.33492173921715
 20
13.98207459629485
 42
0.4142135623730951
 10
10.30492173921715
 20
14.01207459629485
 10
10.22392173921718
 20
14.01207459629485
 42
-0.4142135623730951
 10
10.20892173921718
 20
14.02707459629485
 10
10.20892173921718
 20
14.46407459629485
 42
-0.4142135623730951
 10
10.22392173921718
 20
14.47907459629485
 10
10.63392173921716
 20
14.47907459629485
 42
-0.4142135623730951
 10
10.64892173921716
 20
14.46407459629485
 10
10.64892173921716
 20
13.87007459629486
 42
-0.4142135623730951
 10
10.63392173921716
 20
13.85507459629486
 10
10.56092173921715
 20
13.85507459629486
 42
0.4142135623730951
 10
10.53092173921715
 20
13.82507459629486
 10
10.53092173921715
 20
13.71207459629485
 42
0.4142135623730951
 10
10.54592173921715
 20
13.69707459629485
 10
10.60699296423398
 20
13.69707459629486
 42
0.4931454260313336
  0
ARC
  5
C90E73C08D47D377
330
C90E73C08D47C637
100
AcDbEntity
  8
10
 48
0.25
100
AcDbCircle
 10
10.10692173921719
 20
14.28207459629485
 30
0.0
 40
0.0749999999999993
100
AcDbArc
 50
72.14153730160116
 51
287.8584626984097
  0
LWPOLYLINE
  5
C90E73C08D47D379
330
C90E73C08D47C637
100
AcDbEntity
  8
10
100
AcDbPolyline
 90
        6
 70
     0
 43
0.0
 10
10.12992173921725
 20
16.93033191200633
 10
10.04090262228144
 20
16.73411207231988
 42
-0.0522813753986091
 10
10.03566860978426
 20
16.72509300637058
 42
0.577370775527271
 10
10.04934627188159
 20
16.69421077724684
 42
0.2998307703621348
 10
10.06401761715974
 20
16.70177378659489
 10
10.12992173921724
 20
16.81707459629497
  0
LWPOLYLINE
  5
C90E73C08D47D37A
330
C90E73C08D47C637
100
AcDbEntity
  8
10
100
AcDbPolyline
 90
       33
 70
     1
 43
0.0
 10
10.62148185162839
 20
17.64419231061834
 10
10.61043285182289
 20
17.60295688197141
 42
0.4931454260312981
 10
10.62492173921723
 20
17.58407459629487
 10
10.71292173921723
 20
17.58407459629487
 42
-0.4142135623730951
 10
10.72792173921723
 20
17.56907459629487
 10
10.72792173921723
 20
16.83207459629487
 42
-0.4142135623730951
 10
10.69792173921723
 20
16.80207459629487
 10
10.12992173921724
 20
16.80207459629487
 10
10.12992173921729
 20
17.39707459629488
 42
-0.4142135623730795
 10
10.15992173921729
 20
17.42707459629487
 10
10.24092173921723
 20
17.42707459629487
 42
0.4142135623730951
 10
10.25592173921723
 20
17.44207459629487
 10
10.25592173921723
 20
17.56907459629487
 42
0.4142135623730951
 10
10.24092173921723
 20
17.58407459629487
 10
10.13842173921723
 20
17.58407459629487
 42
-0.9999999999999998
 10
10.13842173921723
 20
17.66307459629487
 10
10.30492173921723
 20
17.66307459629487
 42
-0.4142135623730951
 10
10.33492173921723
 20
17.63307459629487
 10
10.33492173921723
 20
17.37807459629487
 42
-0.4142135623730951
 10
10.30492173921723
 20
17.34807459629487
 10
10.22392173921726
 20
17.34807459629488
 42
0.4142135623730951
 10
10.20892173921726
 20
17.33307459629488
 10
10.20892173921726
 20
16.89607459629487
 42
0.4142135623730951
 10
10.22392173921726
 20
16.88107459629487
 10
10.63392173921723
 20
16.88107459629487
 42
0.4142135623730951
 10
10.64892173921723
 20
16.89607459629487
 10
10.64892173921723
 20
17.49007459629487
 42
0.4142135623730951
 10
10.63392173921723
 20
17.50507459629487
 10
10.56092173921723
 20
17.50507459629487
 42
-0.4142135623730951
 10
10.53092173921723
 20
17.53507459629487
 10
10.53092173921723
 20
17.64807459629487
 42
-0.4142135623730951
 10
10.54592173921723
 20
17.66307459629487
 10
10.60699296423406
 20
17.66307459629487
 42
-0.4931454260313336
  0
ARC
  5
C90E73C08D47D37B
330
C90E73C08D47C637
100
AcDbEntity
  8
10
 48
0.25
100
AcDbCircle
 10
10.10692173921727
 20
17.07807459629487
 30
0.0
 40
0.0749999999999993
100
AcDbArc
 50
72.1415373015903
 51
287.8584626983988
  0
INSERT
  5
C90E73C08D47D3D0
330
C90E73C08D47C637
100
AcDbEntity
  8
0
100
AcDbBlockReference
  2
AS extents block
 10
6.509067012685671
 20
1.065182445155087
 30
0.0
  0
INSERT
  5
C90E73C08D47D593
330
C90E73C08D47C637
100
AcDbEntity
  8
0
100
AcDbBlockReference
 66
     1
  2
rev
 10
0.0
 20
0.0
 30
0.0
1001
MTVPROFILELINK
1002
{
1000
#BlockRef=9695e2af-0x1477-4efe-A96F-1A69CAF05612| 
1002
}
1005
AA
  0
ATTRIB
  5
C90E73C08D47D596
330
C90E73C08D47D593
100
AcDbEntity
  8
THIN
100
AcDbText
 10
9.26515849042375
 20
2.189233732637756
 30
0.0
 40
0.27
  1
9/06
 51
10.0
  7
ROMANS
100
AcDbAttribute
280
     0
  2
REV:
 70
     0
280
     0
  0
ATTRIB
  5
C90E73C08D47D597
330
C90E73C08D47D593
100
AcDbEntity
  8
THIN
100
AcDbText
 10
21.2723622009754
 20
2.113039031942945
 30
0.0
 40
0.27
  1
147
 51
10.0
  7
ROMANS
100
AcDbAttribute
280
     0
  2
AS#
 70
     0
280
     0
  0
SEQEND
  5
C90E73C08D47D595
330
C90E73C08D47D593
100
AcDbEntity
  8
0
  0
ENDSEC
  0
SECTION
  2
OBJECTS
  0
DICTIONARY
  5
C90E73C08D47C623
330
0
100
AcDbDictionary
281
     1
  3
ACAD_CIP_PREVIOUS_PRODUCT_INFO
350
C90E73C08D47D613
  3
ACAD_COLOR
350
C90E73C08D47C632
  3
ACAD_DETAILVIEWSTYLE
350
C90E73C08D47D608
  3
ACAD_GROUP
350
C90E73C08D47C624
  3
ACAD_IMAGE_DICT
350
C90E73C08D47C70D
  3
ACAD_LAYOUT
350
C90E73C08D47C630
  3
ACAD_MATERIAL
350
C90E73C08D47C631
  3
ACAD_MLEADERSTYLE
350
C90E73C08D47D604
  3
ACAD_MLINESTYLE
350
C90E73C08D47C62D
  3
ACAD_PLOTSETTINGS
350
C90E73C08D47C62F
  3
ACAD_PLOTSTYLENAME
350
C90E73C08D47C625
  3
ACAD_SCALELIST
350
C90E73C08D47D5F2
  3
ACAD_SECTIONVIEWSTYLE
350
C90E73C08D47D606
  3
ACAD_TABLESTYLE
350
C90E73C08D47CD2A
  3
ACAD_VISUALSTYLE
350
C90E73C08D47D5D9
  3
AcAmCatalogState
350
C90E73C08D47C6D2
  3
ACDB_RECOMPOSE_DATA
350
C90E73C08D47D650
  3
AcDbVariableDictionary
350
C90E73C08D47CD5A
  3
ACDMSYSVARMGR
350
C90E73C08D47C68D
  3
ACGREF_MASTER
350
C90E73C08D47C687
  3
ACGREFACAD_MASTER
350
C90E73C08D47C6AE
  3
AcmDictionary
350
C90E73C08D47C6D0
  3
ACME_BOM_MANAGER_NAME
350
C90E73C08D47C681
  3
ACME_COMMAND_HISTORY
350
C90E73C08D47C67E
  3
ACME_SCOPE_NAME
350
C90E73C08D47C67D
  3
ACMESTATEMGR
350
C90E73C08D47C686
  3
AcmeSysVarManager
350
C90E73C08D47C67F
  3
AcmSystemVariableManager
350
C90E73C08D47C6DB
  3
AD_APPL
350
C90E73C08D47C6BD
  3
ADSYSVARMGR
350
C90E73C08D47C6BC
  3
AmdtNamedDwgMgr
350
C90E73C08D47C6A9
  3
AMG
350
C90E73C08D47C6B2
  3
AMGSNAPSETTINGS
350
C90E73C08D47C70F
  3
AMI_MASTER
350
C90E73C08D47C6B1
  3
AUTOCAD_ASSEMBLIES_PROJECT
350
C90E73C08D47C6C5
  3
Designer_Assemblies_SysVars
350
C90E73C08D47C6C0
  3
GREFAM_MODULE
350
C90E73C08D47C6B6
  3
MTV_XATTACH
350
C90E73C08D47CEB9
  0
DICTIONARY
  5
C90E73C08D47C728
330
C90E73C08D47C619
100
AcDbDictionary
280
     1
281
     1
  3
ACAD_LAYERSTATES
360
C90E73C08D47C729
  0
DICTIONARY
  5
C90E73C08D47D616
330
C90E73C08D47C627
100
AcDbDictionary
280
     1
281
     1
  3
ADSK_XREC_LAYER_RECONCILED
360
C90E73C08D47D617
  0
DICTIONARY
  5
C90E73C08D47D618
330
C90E73C08D47C65C
100
AcDbDictionary
280
     1
281
     1
  3
ADSK_XREC_LAYER_RECONCILED
360
C90E73C08D47D619
  0
DICTIONARY
  5
C90E73C08D47D61A
330
C90E73C08D47C660
100
AcDbDictionary
280
     1
281
     1
  3
ADSK_XREC_LAYER_RECONCILED
360
C90E73C08D47D61B
  0
DICTIONARY
  5
C90E73C08D47D61C
330
C90E73C08D47C663
100
AcDbDictionary
280
     1
281
     1
  3
ADSK_XREC_LAYER_RECONCILED
360
C90E73C08D47D61D
  0
DICTIONARY
  5
C90E73C08D47D61E
330
C90E73C08D47C664
100
AcDbDictionary
280
     1
281
     1
  3
ADSK_XREC_LAYER_RECONCILED
360
C90E73C08D47D61F
  0
DICTIONARY
  5
C90E73C08D47D620
330
C90E73C08D47C665
100
AcDbDictionary
280
     1
281
     1
  3
ADSK_XREC_LAYER_RECONCILED
360
C90E73C08D47D621
  0
DICTIONARY
  5
C90E73C08D47D622
330
C90E73C08D47C666
100
AcDbDictionary
280
     1
281
     1
  3
ADSK_XREC_LAYER_RECONCILED
360
C90E73C08D47D623
  0
DICTIONARY
  5
C90E73C08D47D624
330
C90E73C08D47C66F
100
AcDbDictionary
280
     1
281
     1
  3
ADSK_XREC_LAYER_RECONCILED
360
C90E73C08D47D625
  0
DICTIONARY
  5
C90E73C08D47D626
330
C90E73C08D47C723
100
AcDbDictionary
280
     1
281
     1
  3
ADSK_XREC_LAYER_RECONCILED
360
C90E73C08D47D627
  0
DICTIONARY
  5
C90E73C08D47D628
330
C90E73C08D47C724
100
AcDbDictionary
280
     1
281
     1
  3
ADSK_XREC_LAYER_RECONCILED
360
C90E73C08D47D629
  0
DICTIONARY
  5
C90E73C08D47D62A
330
C90E73C08D47D285
100
AcDbDictionary
280
     1
281
     1
  3
ADSK_XREC_LAYER_RECONCILED
360
C90E73C08D47D62B
  0
DICTIONARY
  5
C90E73C08D47D62C
330
C90E73C08D47D286
100
AcDbDictionary
280
     1
281
     1
  3
ADSK_XREC_LAYER_RECONCILED
360
C90E73C08D47D62D
  0
DICTIONARY
  5
C90E73C08D47D62E
330
C90E73C08D47D287
100
AcDbDictionary
280
     1
281
     1
  3
ADSK_XREC_LAYER_RECONCILED
360
C90E73C08D47D62F
  0
DICTIONARY
  5
C90E73C08D47D630
330
C90E73C08D47D2F1
100
AcDbDictionary
280
     1
281
     1
  3
ADSK_XREC_LAYER_RECONCILED
360
C90E73C08D47D631
  0
DICTIONARY
  5
C90E73C08D47D632
330
C90E73C08D47D3C0
100
AcDbDictionary
280
     1
281
     1
  3
ADSK_XREC_LAYER_RECONCILED
360
C90E73C08D47D633
  0
DICTIONARY
  5
C90E73C08D47CC56
330
C90E73C08D47C637
100
AcDbDictionary
280
     1
281
     1
  3
ACAD_SORTENTS
360
C90E73C08D47CD87
  0
DICTIONARY
  5
C90E73C08D47C86B
330
C90E73C08D47C641
100
AcDbDictionary
280
     1
281
     1
  0
DICTIONARY
  5
C90E73C08D47CEB3
330
C90E73C08D47CEAB
100
AcDbDictionary
280
     1
281
     1
  3
ACAD_SORTENTS
360
C90E73C08D47CEB4
  0
DICTIONARY
  5
C90E73C08D47D20F
330
C90E73C08D47D20C
100
AcDbDictionary
280
     1
281
     1
  3
ACAD_SORTENTS
360
C90E73C08D47D210
  0
DICTIONARY
  5
C90E73C08D47D23B
330
C90E73C08D47D239
100
AcDbDictionary
280
     1
281
     1
  3
ACAD_SORTENTS
360
C90E73C08D47D23C
  0
DICTIONARY
  5
C90E73C08D47D3BC
330
C90E73C08D47D3BB
100
AcDbDictionary
280
     1
281
     1
  0
XRECORD
  5
C90E73C08D47D613
102
{ACAD_REACTORS
330
C90E73C08D47C623
102
}
330
C90E73C08D47C623
100
AcDbXrecord
280
     1
300
ACDLT
300
2019
300

  0
DICTIONARY
  5
C90E73C08D47C632
102
{ACAD_REACTORS
330
C90E73C08D47C623
102
}
330
C90E73C08D47C623
100
AcDbDictionary
281
     1
  0
DICTIONARY
  5
C90E73C08D47D608
102
{ACAD_REACTORS
330
C90E73C08D47C623
102
}
330
C90E73C08D47C623
100
AcDbDictionary
281
     1
  3
Imperial24
350
C90E73C08D47D609
  0
DICTIONARY
  5
C90E73C08D47C624
102
{ACAD_REACTORS
330
C90E73C08D47C623
102
}
330
C90E73C08D47C623
100
AcDbDictionary
281
     1
  0
DICTIONARY
  5
C90E73C08D47C70D
102
{ACAD_REACTORS
330
C90E73C08D47C623
102
}
330
C90E73C08D47C623
100
AcDbDictionary
281
     1
  0
DICTIONARY
  5
C90E73C08D47C630
102
{ACAD_REACTORS
330
C90E73C08D47C623
102
}
330
C90E73C08D47C623
100
AcDbDictionary
281
     1
  3
Layout1
350
C90E73C08D47C636
  3
Model
350
C90E73C08D47C63A
  0
DICTIONARY
  5
C90E73C08D47C631
102
{ACAD_REACTORS
330
C90E73C08D47C623
102
}
330
C90E73C08D47C623
100
AcDbDictionary
281
     1
  3
ByBlock
350
C90E73C08D47D5C9
  3
ByLayer
350
C90E73C08D47D5C1
  3
Global
350
C90E73C08D47D5D1
  0
DICTIONARY
  5
C90E73C08D47D604
102
{ACAD_REACTORS
330
C90E73C08D47C623
102
}
330
C90E73C08D47C623
100
AcDbDictionary
281
     1
  3
Standard
350
C90E73C08D47D605
  0
DICTIONARY
  5
C90E73C08D47C62D
102
{ACAD_REACTORS
330
C90E73C08D47C623
102
}
330
C90E73C08D47C623
100
AcDbDictionary
281
     1
  3
EXPOSED
350
C90E73C08D47D28C
  3
Standard
350
C90E73C08D47C62E
  0
DICTIONARY
  5
C90E73C08D47C62F
102
{ACAD_REACTORS
330
C90E73C08D47C623
102
}
330
C90E73C08D47C623
100
AcDbDictionary
281
     1
  0
ACDBDICTIONARYWDFLT
  5
C90E73C08D47C625
102
{ACAD_REACTORS
330
C90E73C08D47C623
102
}
330
C90E73C08D47C623
100
AcDbDictionary
281
     1
  3
Normal
350
C90E73C08D47C626
100
AcDbDictionaryWithDefault
340
C90E73C08D47C626
  0
DICTIONARY
  5
C90E73C08D47D5F2
102
{ACAD_REACTORS
330
C90E73C08D47C623
102
}
330
C90E73C08D47C623
100
AcDbDictionary
281
     1
  3
A0
350
C90E73C08D47D5F3
  3
A1
350
C90E73C08D47D5F4
  3
A2
350
C90E73C08D47D5F5
  3
A3
350
C90E73C08D47D5F6
  3
A4
350
C90E73C08D47D5F7
  3
A5
350
C90E73C08D47D5F8
  3
A6
350
C90E73C08D47D5F9
  3
A7
350
C90E73C08D47D5FA
  3
A8
350
C90E73C08D47D5FB
  3
A9
350
C90E73C08D47D5FC
  3
B0
350
C90E73C08D47D5FD
  3
B1
350
C90E73C08D47D5FE
  3
B2
350
C90E73C08D47D5FF
  3
B3
350
C90E73C08D47D600
  3
B4
350
C90E73C08D47D601
  3
B5
350
C90E73C08D47D602
  3
B6
350
C90E73C08D47D603
  0
DICTIONARY
  5
C90E73C08D47D606
102
{ACAD_REACTORS
330
C90E73C08D47C623
102
}
330
C90E73C08D47C623
100
AcDbDictionary
281
     1
  3
Imperial24
350
C90E73C08D47D607
  0
DICTIONARY
  5
C90E73C08D47CD2A
102
{ACAD_REACTORS
330
C90E73C08D47C623
102
}
330
C90E73C08D47C623
100
AcDbDictionary
281
     1
  3
Standard
350
C90E73C08D47CD2B
  0
DICTIONARY
  5
C90E73C08D47D5D9
102
{ACAD_REACTORS
330
C90E73C08D47C623
102
}
330
C90E73C08D47C623
100
AcDbDictionary
281
     1
  3
2dWireframe
350
C90E73C08D47D5DF
  3
Basic
350
C90E73C08D47D5DE
  3
Brighten
350
C90E73C08D47D5E5
  3
ColorChange
350
C90E73C08D47D5E9
  3
Conceptual
350
C90E73C08D47D5E2
  3
Dim
350
C90E73C08D47D5E4
  3
EdgeColorOff
350
C90E73C08D47D5F1
  3
Facepattern
350
C90E73C08D47D5E8
  3
Flat
350
C90E73C08D47D5DA
  3
FlatWithEdges
350
C90E73C08D47D5DB
  3
Gouraud
350
C90E73C08D47D5DC
  3
GouraudWithEdges
350
C90E73C08D47D5DD
  3
Hidden
350
C90E73C08D47D5E1
  3
JitterOff
350
C90E73C08D47D5EF
  3
Linepattern
350
C90E73C08D47D5E7
  3
OverhangOff
350
C90E73C08D47D5F0
  3
Realistic
350
C90E73C08D47D5E3
  3
Shaded
350
C90E73C08D47D5EE
  3
Shaded with edges
350
C90E73C08D47D5ED
  3
Shades of Gray
350
C90E73C08D47D5EA
  3
Sketchy
350
C90E73C08D47D5EB
  3
Thicken
350
C90E73C08D47D5E6
  3
Wireframe
350
C90E73C08D47D5E0
  3
X-Ray
350
C90E73C08D47D5EC
  0
ACAD_PROXY_OBJECT
  5
C90E73C08D47C6D2
102
{ACAD_REACTORS
330
C90E73C08D47C623
102
}
330
C90E73C08D47C623
100
AcDbProxyObject
 90
      499
 91
      544
 71
    25
 97
       77
 70
     0
161
               512
310
3FFFFFFFE00A028140293AD1D2E26B7BA34BB30902BB7B935B9B830B1B2AE20A9989A1BAF96AF9C9B189A1C98999C1A2F98C0085C5C416318591B4803230303400
 94
        0
  0
XRECORD
  5
C90E73C08D47D650
102
{ACAD_REACTORS
330
C90E73C08D47C623
102
}
330
C90E73C08D47C623
100
AcDbXrecord
280
     1
 90
        1
330
C90E73C08D47CD2B
  0
DICTIONARY
  5
C90E73C08D47CD5A
102
{ACAD_REACTORS
330
C90E73C08D47C623
102
}
330
C90E73C08D47C623
100
AcDbDictionary
281
     1
  3
CANNOSCALE
350
C90E73C08D47D640
  3
CMLEADERSTYLE
350
C90E73C08D47D63C
  3
CTABLESTYLE
350
C90E73C08D47CD5B
  3
CVIEWDETAILSTYLE
350
C90E73C08D47D63D
  3
CVIEWSECTIONSTYLE
350
C90E73C08D47D63E
  3
LAYEREVAL
350
C90E73C08D47D642
  3
LAYERNOTIFY
350
C90E73C08D47D643
  3
LIGHTINGUNITS
350
C90E73C08D47D641
  3
MSLTSCALE
350
C90E73C08D47D63F
  0
ACAD_PROXY_OBJECT
  5
C90E73C08D47C68D
102
{ACAD_REACTORS
330
C90E73C08D47C623
102
}
330
C90E73C08D47C623
100
AcDbProxyObject
 90
      499
 91
      504
 71
    25
 97
       77
 70
     0
161
               240
310
4C51A47A0000000000000000000000000000000000000000000000000000A0
330
C90E73C08D47C68E
330
C90E73C08D47C68F
330
C90E73C08D47C690
330
C90E73C08D47C691
330
C90E73C08D47C692
330
C90E73C08D47C693
330
C90E73C08D47C694
330
C90E73C08D47C696
330
C90E73C08D47C697
330
C90E73C08D47C698
330
C90E73C08D47C699
330
C90E73C08D47C69A
330
C90E73C08D47C69B
330
C90E73C08D47C69C
330
C90E73C08D47C69D
330
C90E73C08D47C69E
330
C90E73C08D47C69F
330
C90E73C08D47C6A0
330
C90E73C08D47C6A1
330
C90E73C08D47C6A2
330
C90E73C08D47C6A3
330
C90E73C08D47C6A4
330
C90E73C08D47C6A5
330
C90E73C08D47C6A6
330
C90E73C08D47C6A7
330
C90E73C08D47C6A8
 94
        0
  0
ACAD_PROXY_OBJECT
  5
C90E73C08D47C687
102
{ACAD_REACTORS
330
C90E73C08D47C623
102
}
330
C90E73C08D47C623
100
AcDbProxyObject
 90
      499
 91
      512
 71
    25
 97
       77
 70
     0
161
                34
310
040000428C
 94
        0
  0
ACAD_PROXY_OBJECT
  5
C90E73C08D47C6AE
102
{ACAD_REACTORS
330
C90E73C08D47C623
102
}
330
C90E73C08D47C623
100
AcDbProxyObject
 90
      499
 91
      521
 71
    25
 97
       77
 70
     0
161
               114
310
04000041C08000000000000000000C
 94
        0
  0
DICTIONARY
  5
C90E73C08D47C6D0
102
{ACAD_REACTORS
330
C90E73C08D47C623
102
}
330
C90E73C08D47C623
100
AcDbDictionary
281
     1
  3
AcmBOMDATA
350
C90E73C08D47C6D1
  3
AcmStdDictionary
350
C90E73C08D47C6DD
  3
AMDTSECTSYM_ARROWCOLOR
350
C90E73C08D47CD41
  0
ACAD_PROXY_OBJECT
  5
C90E73C08D47C681
102
{ACAD_REACTORS
330
C90E73C08D47C623
102
}
330
C90E73C08D47C623
100
AcDbProxyObject
 90
      499
 91
      506
 71
    25
 97
       77
 70
     0
161
                50
310
0001004040000C
330
0
330
0
330
C90E73C08D47C682
 94
        0
  0
ACAD_PROXY_OBJECT
  5
C90E73C08D47C67E
102
{ACAD_REACTORS
330
C90E73C08D47C623
102
}
330
C90E73C08D47C623
100
AcDbProxyObject
 90
      499
 91
      503
 71
    25
 97
       77
 70
     0
161
              3930
310
478050C475249505F5354524554434840405184D5347202D20436F6D6D616E642043414E43454C4C45442E0141D112535151125520142941493D4115495125154E014311D4925417D4D514915510D22014311D4925417D4D514915510D22014311D4925417D4D514915510D22014311D4925417D4D514915510D2201435052
310
511253551156151353D59150101461354D1C80B4810DBDB5B585B990810D05390D1531311510B8050744494D45444954805054552415345805055343414C45805074558504C4F4445805055343414C45805044D4F5645805044D4F5645805045A4F4F4D805045A4F4F4D805045A4F4F4D805045A4F4F4D805044D4F5645805
310
05424C4F434B40405094E202D20455241534501411693D3D360141141313D510101461354D1C80B4810DBDB5B585B990810D05390D1531311510B805055153415645404052E4D5347202D205050413A2020206465736B746F702E6172782046696C6556657273696F6E3A2031302E322E302E35014390535115149154D1551
310
1109353D1102014213880B4815539113C05084E202D20554E444F014115539113E014115539113E014151549054D1601411693D3D3601415454D05591501014B9354D1C80B481414104E88080819195CDADD1BDC0B985C9E08119A5B1955995C9CDA5BDB8E880C4C0B8C8B8C0B8D4C
 94
        0
  0
ACAD_PROXY_OBJECT
  5
C90E73C08D47C67D
102
{ACAD_REACTORS
330
C90E73C08D47C623
102
}
330
C90E73C08D47C623
100
AcDbProxyObject
 90
      499
 91
      502
 71
    25
 97
       77
 70
     0
161
               546
310
0A0000480080000000000000000012F4CE0000000000000000000000000000000000000000000000000000000000000000000000000000000000000000000000AAA406AA8C
360
C90E73C08D47C680
360
C90E73C08D47C682
360
C90E73C08D47C688
360
C90E73C08D47C689
360
C90E73C08D47C68A
360
C90E73C08D47C68B
360
C90E73C08D47C68E
360
C90E73C08D47C68F
360
C90E73C08D47C690
360
C90E73C08D47C691
360
C90E73C08D47C692
360
C90E73C08D47C693
360
C90E73C08D47C694
360
C90E73C08D47C696
360
C90E73C08D47C697
360
C90E73C08D47C698
360
C90E73C08D47C699
360
C90E73C08D47C69A
360
C90E73C08D47C69B
360
C90E73C08D47C69C
360
C90E73C08D47C69D
360
C90E73C08D47C69E
360
C90E73C08D47C69F
360
C90E73C08D47C6A0
360
C90E73C08D47C6A1
360
C90E73C08D47C6A2
360
C90E73C08D47C6A3
360
C90E73C08D47C6A4
360
C90E73C08D47C6A5
360
C90E73C08D47C6A6
360
C90E73C08D47C6A7
360
C90E73C08D47C6A8
360
C90E73C08D47C6B8
360
C90E73C08D47C6B9
360
C90E73C08D47C6BA
360
C90E73C08D47C6BB
360
C90E73C08D47C6C1
360
C90E73C08D47C6C2
360
C90E73C08D47C6C3
360
C90E73C08D47C6C4
360
C90E73C08D47C6C9
360
C90E73C08D47C6CA
360
C90E73C08D47C6CB
360
C90E73C08D47C6CC
360
C90E73C08D47C6CD
360
C90E73C08D47C6CE
360
C90E73C08D47C6DC
 94
        0
  0
ACAD_PROXY_OBJECT
  5
C90E73C08D47C686
102
{ACAD_REACTORS
330
C90E73C08D47C623
102
}
330
C90E73C08D47C623
100
AcDbProxyObject
 90
      499
 91
      511
 71
    25
 97
       77
 70
     0
161
                50
310
0A000042A4128C
 94
        0
  0
ACAD_PROXY_OBJECT
  5
C90E73C08D47C67F
102
{ACAD_REACTORS
330
C90E73C08D47C623
102
}
330
C90E73C08D47C623
100
AcDbProxyObject
 90
      499
 91
      504
 71
    25
 97
       77
 70
     0
161
                32
310
90140A0000
330
C90E73C08D47C680
 94
        0
  0
ACAD_PROXY_OBJECT
  5
C90E73C08D47C6DB
102
{ACAD_REACTORS
330
C90E73C08D47C623
102
}
330
C90E73C08D47C623
100
AcDbProxyObject
 90
      499
 91
      504
 71
    25
 97
       77
 70
     0
161
                32
310
90140A0000
330
C90E73C08D47C6DC
 94
        0
  0
ACAD_PROXY_OBJECT
  5
C90E73C08D47C6BD
102
{ACAD_REACTORS
330
C90E73C08D47C623
102
}
330
C90E73C08D47C623
100
AcDbProxyObject
 90
      499
 91
      532
 71
    25
 97
       77
 70
     0
161
                42
310
00090000404C
330
C90E73C08D47C6B8
 94
        0
  0
ACAD_PROXY_OBJECT
  5
C90E73C08D47C6BC
102
{ACAD_REACTORS
330
C90E73C08D47C623
102
}
330
C90E73C08D47C623
100
AcDbProxyObject
 90
      499
 91
      504
 71
    25
 97
       77
 70
     0
161
                 8
310
AA00
 94
        0
  0
ACAD_PROXY_OBJECT
  5
C90E73C08D47C6A9
102
{ACAD_REACTORS
330
C90E73C08D47C623
102
}
330
C90E73C08D47C623
100
AcDbProxyObject
 90
      499
 91
      518
 71
    25
 97
       77
 70
     0
161
                42
310
000100005E8C
330
C90E73C08D47C688
 94
        0
  0
DICTIONARY
  5
C90E73C08D47C6B2
102
{ACAD_REACTORS
330
C90E73C08D47C623
102
}
330
C90E73C08D47C623
100
AcDbDictionary
281
     1
  3
AcMgSettings
350
C90E73C08D47C6B3
  3
AMGLAYCFG
350
C90E73C08D47C6DF
  0
DICTIONARY
  5
C90E73C08D47C70F
102
{ACAD_REACTORS
330
C90E73C08D47C623
102
}
330
C90E73C08D47C623
100
AcDbDictionary
281
     1
  3
DIMENSION
350
C90E73C08D47C714
  3
FEA
350
C90E73C08D47C713
  3
HATCH (1)
350
C90E73C08D47C710
  3
HATCH (2)
350
C90E73C08D47C711
  3
SIMPLE WELD
350
C90E73C08D47C715
  3
SYMBOLS
350
C90E73C08D47C712
  0
ACAD_PROXY_OBJECT
  5
C90E73C08D47C6B1
102
{ACAD_REACTORS
330
C90E73C08D47C623
102
}
330
C90E73C08D47C623
100
AcDbProxyObject
 90
      499
 91
      524
 71
    25
 97
       77
 70
     0
161
                34
310
050000428C
 94
        0
  0
ACAD_PROXY_OBJECT
  5
C90E73C08D47C6C5
102
{ACAD_REACTORS
330
C90E73C08D47C623
102
}
330
C90E73C08D47C623
100
AcDbProxyObject
 90
      499
 91
      536
 71
    25
 97
       77
 70
     0
161
                98
310
0A00004FC0000000000000000C
330
C90E73C08D47C6CC
330
0
330
C90E73C08D47C6CD
330
0
330
0
330
0
330
0
330
0
 94
        0
  0
ACAD_PROXY_OBJECT
  5
C90E73C08D47C6C0
102
{ACAD_REACTORS
330
C90E73C08D47C623
102
}
330
C90E73C08D47C623
100
AcDbProxyObject
 90
      499
 91
      504
 71
    25
 97
       77
 70
     0
161
                56
310
904416000000001A
330
C90E73C08D47C6C1
330
C90E73C08D47C6C2
330
C90E73C08D47C6C3
330
C90E73C08D47C6C4
 94
        0
  0
ACAD_PROXY_OBJECT
  5
C90E73C08D47C6B6
102
{ACAD_REACTORS
330
C90E73C08D47C623
102
}
330
C90E73C08D47C623
100
AcDbProxyObject
 90
      499
 91
      526
 71
    25
 97
       77
 70
     0
161
                 8
310
0500
 94
        0
  0
DICTIONARY
  5
C90E73C08D47CEB9
102
{ACAD_REACTORS
330
C90E73C08D47C623
102
}
330
C90E73C08D47C623
100
AcDbDictionary
280
     1
281
     1
  3
2dd3111a-0xa67-47b9-857A-46288DA1C1EE
360
C90E73C08D47D241
  3
9695e2af-0x1477-4efe-A96F-1A69CAF05612
360
C90E73C08D47D594
  3
a5ef8d55-0x5aa4-4a34-B3F3-E96D1A20CB86
360
C90E73C08D47D008
  3
ec3e45c4-0xbd0e-4c4b-A311-98AC49735647
360
C90E73C08D47D216
  0
DICTIONARY
  5
C90E73C08D47C729
102
{ACAD_REACTORS
330
C90E73C08D47C728
102
}
330
C90E73C08D47C728
100
AcDbDictionary
281
     1
  0
XRECORD
  5
C90E73C08D47D617
102
{ACAD_REACTORS
330
C90E73C08D47D616
102
}
330
C90E73C08D47D616
100
AcDbXrecord
280
     1
290
     1
  0
XRECORD
  5
C90E73C08D47D619
102
{ACAD_REACTORS
330
C90E73C08D47D618
102
}
330
C90E73C08D47D618
100
AcDbXrecord
280
     1
290
     1
  0
XRECORD
  5
C90E73C08D47D61B
102
{ACAD_REACTORS
330
C90E73C08D47D61A
102
}
330
C90E73C08D47D61A
100
AcDbXrecord
280
     1
290
     1
  0
XRECORD
  5
C90E73C08D47D61D
102
{ACAD_REACTORS
330
C90E73C08D47D61C
102
}
330
C90E73C08D47D61C
100
AcDbXrecord
280
     1
290
     1
  0
XRECORD
  5
C90E73C08D47D61F
102
{ACAD_REACTORS
330
C90E73C08D47D61E
102
}
330
C90E73C08D47D61E
100
AcDbXrecord
280
     1
290
     1
  0
XRECORD
  5
C90E73C08D47D621
102
{ACAD_REACTORS
330
C90E73C08D47D620
102
}
330
C90E73C08D47D620
100
AcDbXrecord
280
     1
290
     1
  0
XRECORD
  5
C90E73C08D47D623
102
{ACAD_REACTORS
330
C90E73C08D47D622
102
}
330
C90E73C08D47D622
100
AcDbXrecord
280
     1
290
     1
  0
XRECORD
  5
C90E73C08D47D625
102
{ACAD_REACTORS
330
C90E73C08D47D624
102
}
330
C90E73C08D47D624
100
AcDbXrecord
280
     1
290
     1
  0
XRECORD
  5
C90E73C08D47D627
102
{ACAD_REACTORS
330
C90E73C08D47D626
102
}
330
C90E73C08D47D626
100
AcDbXrecord
280
     1
290
     1
  0
XRECORD
  5
C90E73C08D47D629
102
{ACAD_REACTORS
330
C90E73C08D47D628
102
}
330
C90E73C08D47D628
100
AcDbXrecord
280
     1
290
     1
  0
XRECORD
  5
C90E73C08D47D62B
102
{ACAD_REACTORS
330
C90E73C08D47D62A
102
}
330
C90E73C08D47D62A
100
AcDbXrecord
280
     1
290
     1
  0
XRECORD
  5
C90E73C08D47D62D
102
{ACAD_REACTORS
330
C90E73C08D47D62C
102
}
330
C90E73C08D47D62C
100
AcDbXrecord
280
     1
290
     1
  0
XRECORD
  5
C90E73C08D47D62F
102
{ACAD_REACTORS
330
C90E73C08D47D62E
102
}
330
C90E73C08D47D62E
100
AcDbXrecord
280
     1
290
     1
  0
XRECORD
  5
C90E73C08D47D631
102
{ACAD_REACTORS
330
C90E73C08D47D630
102
}
330
C90E73C08D47D630
100
AcDbXrecord
280
     1
290
     1
  0
XRECORD
  5
C90E73C08D47D633
102
{ACAD_REACTORS
330
C90E73C08D47D632
102
}
330
C90E73C08D47D632
100
AcDbXrecord
280
     1
290
     1
  0
SORTENTSTABLE
  5
C90E73C08D47CD87
102
{ACAD_REACTORS
330
C90E73C08D47CC56
102
}
330
C90E73C08D47CC56
100
AcDbSortentsTable
330
C90E73C08D47C637
331
C90E73C08D47C87E
  5
C90E73C08D47C882
331
C90E73C08D47C87F
  5
C90E73C08D47C883
331
C90E73C08D47C880
  5
C90E73C08D47C884
331
C90E73C08D47C881
  5
C90E73C08D47C885
331
C90E73C08D47C882
  5
C90E73C08D47C886
331
C90E73C08D47C883
  5
C90E73C08D47C887
331
C90E73C08D47C884
  5
C90E73C08D47C888
331
C90E73C08D47C885
  5
C90E73C08D47C889
331
C90E73C08D47C886
  5
C90E73C08D47C88A
331
C90E73C08D47C887
  5
C90E73C08D47C88B
331
C90E73C08D47C888
  5
C90E73C08D47C88C
331
C90E73C08D47C889
  5
C90E73C08D47C88D
331
C90E73C08D47C88A
  5
C90E73C08D47C88E
331
C90E73C08D47C88B
  5
C90E73C08D47C88F
331
C90E73C08D47C88C
  5
C90E73C08D47C890
331
C90E73C08D47C88D
  5
C90E73C08D47C891
331
C90E73C08D47C88E
  5
C90E73C08D47C892
331
C90E73C08D47C88F
  5
C90E73C08D47C893
331
C90E73C08D47C890
  5
C90E73C08D47C894
331
C90E73C08D47C891
  5
C90E73C08D47C895
331
C90E73C08D47C892
  5
C90E73C08D47C896
331
C90E73C08D47C893
  5
C90E73C08D47C897
331
C90E73C08D47C894
  5
C90E73C08D47C898
331
C90E73C08D47C895
  5
C90E73C08D47C899
331
C90E73C08D47C896
  5
C90E73C08D47C89A
331
C90E73C08D47C897
  5
C90E73C08D47C89B
331
C90E73C08D47C898
  5
C90E73C08D47C89C
331
C90E73C08D47C899
  5
C90E73C08D47C89D
331
C90E73C08D47C89A
  5
C90E73C08D47C89E
331
C90E73C08D47C89B
  5
C90E73C08D47C89F
331
C90E73C08D47C89C
  5
C90E73C08D47C8A0
331
C90E73C08D47C89D
  5
C90E73C08D47C8A1
331
C90E73C08D47C89E
  5
C90E73C08D47C8A2
331
C90E73C08D47C89F
  5
C90E73C08D47C8A3
331
C90E73C08D47C8A0
  5
C90E73C08D47C8A4
331
C90E73C08D47C8A1
  5
C90E73C08D47C8A5
331
C90E73C08D47C8A2
  5
C90E73C08D47C8A6
331
C90E73C08D47C8A3
  5
C90E73C08D47C8A7
331
C90E73C08D47C8A4
  5
C90E73C08D47C8A8
331
C90E73C08D47C8A5
  5
C90E73C08D47C8A9
331
C90E73C08D47C8A6
  5
C90E73C08D47C8AA
331
C90E73C08D47C8A7
  5
C90E73C08D47C8AB
331
C90E73C08D47C8A8
  5
C90E73C08D47C8AC
331
C90E73C08D47C8A9
  5
C90E73C08D47C8AD
331
C90E73C08D47C8AA
  5
C90E73C08D47C8AE
331
C90E73C08D47C8AB
  5
C90E73C08D47C8AF
331
C90E73C08D47C8AC
  5
C90E73C08D47C8B4
331
C90E73C08D47C8AD
  5
C90E73C08D47C8B5
331
C90E73C08D47C8AE
  5
C90E73C08D47C8B6
331
C90E73C08D47C8AF
  5
C90E73C08D47C8B7
331
C90E73C08D47C8B4
  5
C90E73C08D47C8B8
331
C90E73C08D47C8B5
  5
C90E73C08D47C8B9
331
C90E73C08D47C8B6
  5
C90E73C08D47C8BA
331
C90E73C08D47C8B7
  5
C90E73C08D47C8BB
331
C90E73C08D47C8B8
  5
C90E73C08D47C8BC
331
C90E73C08D47C8B9
  5
C90E73C08D47C8BD
331
C90E73C08D47C8BA
  5
C90E73C08D47C8BE
331
C90E73C08D47C8BB
  5
C90E73C08D47C8BF
331
C90E73C08D47C8BC
  5
C90E73C08D47C8C0
331
C90E73C08D47C8BD
  5
C90E73C08D47C8C1
331
C90E73C08D47C8BE
  5
C90E73C08D47C8C2
331
C90E73C08D47C8BF
  5
C90E73C08D47C8C3
331
C90E73C08D47C8C0
  5
C90E73C08D47C8C4
331
C90E73C08D47C8C1
  5
C90E73C08D47C8C5
331
C90E73C08D47C8C2
  5
C90E73C08D47C8C6
331
C90E73C08D47C8C3
  5
C90E73C08D47C8C7
331
C90E73C08D47C8C4
  5
C90E73C08D47C8C8
331
C90E73C08D47C8C5
  5
C90E73C08D47C8C9
331
C90E73C08D47C8C6
  5
C90E73C08D47C8CA
331
C90E73C08D47C8C7
  5
C90E73C08D47C8CB
331
C90E73C08D47C8C8
  5
C90E73C08D47C8CC
331
C90E73C08D47C8C9
  5
C90E73C08D47C8CD
331
C90E73C08D47C8CA
  5
C90E73C08D47C8CE
331
C90E73C08D47C8CB
  5
C90E73C08D47C8CF
331
C90E73C08D47C8CC
  5
C90E73C08D47C8D0
331
C90E73C08D47C8CD
  5
C90E73C08D47C8D1
331
C90E73C08D47C8CE
  5
C90E73C08D47C8D2
331
C90E73C08D47C8CF
  5
C90E73C08D47C8D3
331
C90E73C08D47C8D0
  5
C90E73C08D47C8D4
331
C90E73C08D47C8D1
  5
C90E73C08D47C8D5
331
C90E73C08D47C8D2
  5
C90E73C08D47C8D6
331
C90E73C08D47C8D3
  5
C90E73C08D47C8D7
331
C90E73C08D47C8D4
  5
C90E73C08D47C8D8
331
C90E73C08D47C8D5
  5
C90E73C08D47C8D9
331
C90E73C08D47C8D6
  5
C90E73C08D47C8DA
331
C90E73C08D47C8D7
  5
C90E73C08D47C8DB
331
C90E73C08D47C8D8
  5
C90E73C08D47C8DC
331
C90E73C08D47C8D9
  5
C90E73C08D47C8DD
331
C90E73C08D47C8DA
  5
C90E73C08D47C8DE
331
C90E73C08D47C8DB
  5
C90E73C08D47C8DF
331
C90E73C08D47C8DC
  5
C90E73C08D47C8E0
331
C90E73C08D47C8DD
  5
C90E73C08D47C8E1
331
C90E73C08D47C8DE
  5
C90E73C08D47C8E6
331
C90E73C08D47C8DF
  5
C90E73C08D47C8E8
331
C90E73C08D47C8E0
  5
C90E73C08D47C8F7
331
C90E73C08D47C8E1
  5
C90E73C08D47C8F8
331
C90E73C08D47C8E6
  5
C90E73C08D47C8FA
331
C90E73C08D47C8E8
  5
C90E73C08D47C900
331
C90E73C08D47C8F7
  5
C90E73C08D47C906
331
C90E73C08D47C8F9
  5
C90E73C08D47C920
331
C90E73C08D47C8FE
  5
C90E73C08D47C927
331
C90E73C08D47C8FF
  5
C90E73C08D47C929
331
C90E73C08D47C900
  5
C90E73C08D47C92B
331
C90E73C08D47C906
  5
C90E73C08D47C981
331
C90E73C08D47C973
  5
C90E73C08D47C9A4
331
C90E73C08D47C979
  5
C90E73C08D47C9A5
331
C90E73C08D47C97F
  5
C90E73C08D47C9A6
331
C90E73C08D47C980
  5
C90E73C08D47C9A7
331
C90E73C08D47C985
  5
C90E73C08D47C9A9
331
C90E73C08D47C986
  5
C90E73C08D47C9AA
331
C90E73C08D47C987
  5
C90E73C08D47C9AB
331
C90E73C08D47C996
  5
C90E73C08D47C9AC
331
C90E73C08D47C997
  5
C90E73C08D47C9AD
331
C90E73C08D47C998
  5
C90E73C08D47C9AE
331
C90E73C08D47C9A1
  5
C90E73C08D47C9AF
331
C90E73C08D47C9A2
  5
C90E73C08D47D023
331
C90E73C08D47C9A3
  5
C90E73C08D47D14C
331
C90E73C08D47C9A4
  5
C90E73C08D47D14D
331
C90E73C08D47C9A5
  5
C90E73C08D47D1B9
331
C90E73C08D47C9A6
  5
C90E73C08D47D1BF
331
C90E73C08D47D007
  5
C90E73C08D47D1C5
331
C90E73C08D47D01E
  5
C90E73C08D47D1CB
331
C90E73C08D47D022
  5
C90E73C08D47D1CC
331
C90E73C08D47D023
  5
C90E73C08D47D1D0
331
C90E73C08D47D0A1
  5
C90E73C08D47D201
331
C90E73C08D47D0A6
  5
C90E73C08D47D1FB
331
C90E73C08D47D106
  5
C90E73C08D47D215
331
C90E73C08D47D107
  5
C90E73C08D47D240
331
C90E73C08D47D131
  5
C90E73C08D47D242
331
C90E73C08D47D132
  5
C90E73C08D47D244
331
C90E73C08D47D1B9
  5
C90E73C08D47C90C
331
C90E73C08D47D1BF
  5
C90E73C08D47C8FE
331
C90E73C08D47D1C5
  5
C90E73C08D47C997
331
C90E73C08D47D1CB
  5
C90E73C08D47C996
331
C90E73C08D47D1CC
  5
C90E73C08D47C986
331
C90E73C08D47D1D0
  5
C90E73C08D47C926
331
C90E73C08D47D1FB
  5
C90E73C08D47C9A1
331
C90E73C08D47D201
  5
C90E73C08D47C998
331
C90E73C08D47D202
  5
C90E73C08D47C9A2
331
C90E73C08D47D206
  5
C90E73C08D47C9A8
331
C90E73C08D47D215
  5
C90E73C08D47D245
331
C90E73C08D47D240
  5
C90E73C08D47D2AD
331
C90E73C08D47D242
  5
C90E73C08D47D2AE
331
C90E73C08D47D244
  5
C90E73C08D47D2AF
331
C90E73C08D47D245
  5
C90E73C08D47D2B0
331
C90E73C08D47D2AD
  5
C90E73C08D47D2B1
331
C90E73C08D47D2AE
  5
C90E73C08D47D2B2
331
C90E73C08D47D2AF
  5
C90E73C08D47D2B4
331
C90E73C08D47D2B0
  5
C90E73C08D47D2B5
331
C90E73C08D47D2B1
  5
C90E73C08D47D2B6
331
C90E73C08D47D2B2
  5
C90E73C08D47D2B8
331
C90E73C08D47D2B4
  5
C90E73C08D47D2B9
331
C90E73C08D47D2B5
  5
C90E73C08D47D2C9
331
C90E73C08D47D2B6
  5
C90E73C08D47D2CA
331
C90E73C08D47D2B8
  5
C90E73C08D47D2CB
331
C90E73C08D47D2B9
  5
C90E73C08D47D2CC
331
C90E73C08D47D2C9
  5
C90E73C08D47D2CD
331
C90E73C08D47D2CA
  5
C90E73C08D47D2CE
331
C90E73C08D47D2CB
  5
C90E73C08D47D2CF
331
C90E73C08D47D2CC
  5
C90E73C08D47D2D0
331
C90E73C08D47D2CD
  5
C90E73C08D47D2D1
331
C90E73C08D47D2CE
  5
C90E73C08D47D2D2
331
C90E73C08D47D2CF
  5
C90E73C08D47D2D3
331
C90E73C08D47D2D0
  5
C90E73C08D47D2D5
331
C90E73C08D47D2D1
  5
C90E73C08D47D2D6
331
C90E73C08D47D2D2
  5
C90E73C08D47D2D7
331
C90E73C08D47D2D3
  5
C90E73C08D47D2D8
331
C90E73C08D47D2D5
  5
C90E73C08D47D2D9
331
C90E73C08D47D2D6
  5
C90E73C08D47D2DA
331
C90E73C08D47D2D7
  5
C90E73C08D47D2DB
331
C90E73C08D47D2D8
  5
C90E73C08D47D2DC
331
C90E73C08D47D2D9
  5
C90E73C08D47D2DD
331
C90E73C08D47D2DA
  5
C90E73C08D47D2DE
331
C90E73C08D47D2DB
  5
C90E73C08D47D2DF
331
C90E73C08D47D2DC
  5
C90E73C08D47D2E0
331
C90E73C08D47D2DD
  5
C90E73C08D47D2E1
331
C90E73C08D47D2DE
  5
C90E73C08D47D2E2
331
C90E73C08D47D2DF
  5
C90E73C08D47D2E3
331
C90E73C08D47D2E0
  5
C90E73C08D47D2E4
331
C90E73C08D47D2E1
  5
C90E73C08D47D2E5
331
C90E73C08D47D2E2
  5
C90E73C08D47D2E6
331
C90E73C08D47D2E3
  5
C90E73C08D47D2E7
331
C90E73C08D47D2E4
  5
C90E73C08D47D2E8
331
C90E73C08D47D2E5
  5
C90E73C08D47D304
331
C90E73C08D47D2E6
  5
C90E73C08D47D320
331
C90E73C08D47D2E7
  5
C90E73C08D47D321
331
C90E73C08D47D2E8
  5
C90E73C08D47D322
331
C90E73C08D47D36E
  5
C90E73C08D47D372
331
C90E73C08D47D36F
  5
C90E73C08D47D373
331
C90E73C08D47D370
  5
C90E73C08D47D375
331
C90E73C08D47D371
  5
C90E73C08D47D376
331
C90E73C08D47D372
  5
C90E73C08D47D377
331
C90E73C08D47D373
  5
C90E73C08D47D379
331
C90E73C08D47D375
  5
C90E73C08D47D37A
331
C90E73C08D47D376
  5
C90E73C08D47D37B
331
C90E73C08D47D377
  5
C90E73C08D47D3B6
331
C90E73C08D47D379
  5
C90E73C08D47D3B7
331
C90E73C08D47D37A
  5
C90E73C08D47D3B8
331
C90E73C08D47D37B
  5
C90E73C08D47D3B9
  0
SORTENTSTABLE
  5
C90E73C08D47CEB4
102
{ACAD_REACTORS
330
C90E73C08D47CEB3
102
}
330
C90E73C08D47CEB3
100
AcDbSortentsTable
330
C90E73C08D47CEAB
  0
SORTENTSTABLE
  5
C90E73C08D47D210
102
{ACAD_REACTORS
330
C90E73C08D47D20F
102
}
330
C90E73C08D47D20F
100
AcDbSortentsTable
330
C90E73C08D47D20C
  0
SORTENTSTABLE
  5
C90E73C08D47D23C
102
{ACAD_REACTORS
330
C90E73C08D47D23B
102
}
330
C90E73C08D47D23B
100
AcDbSortentsTable
330
C90E73C08D47D239
  0
ACDBDETAILVIEWSTYLE
  5
C90E73C08D47D609
102
{ACAD_REACTORS
330
C90E73C08D47D608
102
}
330
C90E73C08D47D608
100
AcDbModelDocViewStyle
 70
     0
  3
Imperial24
290
     1
300
Imperial24
 90
        0
100
AcDbDetailViewStyle
 70
     0
 71
     0
 90
        3
 71
     1
340
C90E73C08D47C628
 62
   256
 40
0.24
340
0
 62
   256
 40
0.24
300

 40
0.36
280
     3
 71
     2
340
C90E73C08D47C62C
 90
       25
 62
   256
 71
     3
340
C90E73C08D47C628
 62
   256
 40
0.24
 90
        1
 40
0.75
 90
        1
300
%<\AcVar ViewType \f "%tc1">% %<\AcVar ViewDetailId>%\PSCALE %<\AcVar ViewScale \f "%sn">%
 71
     4
340
C90E73C08D47C62C
 90
       25
 62
   256
340
C90E73C08D47C62C
 90
       25
 62
   256
280
     0
  0
LAYOUT
  5
C90E73C08D47C636
102
{ACAD_REACTORS
330
C90E73C08D47C630
102
}
330
C90E73C08D47C630
100
AcDbPlotSettings
  1

  2
\\cadserver\Jet 25 Eng
  4

  6

 40
0.0
 41
0.0
 42
0.0
 43
0.0
 44
0.0
 45
0.0
 46
0.0
 47
0.0
 48
0.0
 49
0.0
140
0.0
141
0.0
142
1.0
143
1.0
 70
   688
 72
     0
 73
     0
 74
     5
  7
Harvey Std Plot Style.ctb
 75
    16
147
1.0
 76
     0
 77
     2
 78
   300
148
0.0
149
0.0
100
AcDbLayout
  1
Layout1
 70
     1
 71
     1
 10
0.0
 20
0.0
 11
12.0
 21
9.0
 12
0.0
 22
0.0
 32
0.0
 14
1.000000000000000E+20
 24
1.000000000000000E+20
 34
1.000000000000000E+20
 15
-1.000000000000000E+20
 25
-1.000000000000000E+20
 35
-1.000000000000000E+20
146
0.0
 13
0.0
 23
0.0
 33
0.0
 16
1.0
 26
0.0
 36
0.0
 17
0.0
 27
1.0
 37
0.0
 76
     0
330
C90E73C08D47C633
  0
LAYOUT
  5
C90E73C08D47C63A
102
{ACAD_REACTORS
330
C90E73C08D47C630
102
}
330
C90E73C08D47C630
100
AcDbPlotSettings
  1

  2
\\MANMFG\Jet25 Eng
  4
Letter
  6

 40
7.143749713897705
 41
6.720425128936767
 42
7.14373779296875
 43
3.757080078125
 44
215.8999938964844
 45
279.3999938964844
 46
-9.038137577232856
 47
-6.282898418340377
 48
0.0
 49
0.0
140
0.0
141
0.0
142
1.0
143
2.0
 70
 11956
 72
     0
 73
     0
 74
     1
  7
Harvey Std Plot Style.ctb
 75
    17
147
0.5
 76
     0
 77
     2
 78
   300
148
-165.2780972556702
149
-22.94036305587777
100
AcDbLayout
  1
Model
 70
     1
 71
     0
 10
0.0
 20
0.0
 11
12.0
 21
9.0
 12
0.0
 22
0.0
 32
0.0
 14
0.0
 24
0.0
 34
0.0
 15
0.0
 25
0.0
 35
0.0
146
0.0
 13
0.0
 23
0.0
 33
0.0
 16
1.0
 26
0.0
 36
0.0
 17
0.0
 27
1.0
 37
0.0
 76
     0
330
C90E73C08D47C637
331
C90E73C08D47D5BF
1001
ACAD_PSEXT
1000
\\MANMFG\Jet25 Eng
1000
HP LaserJet 5000 Series PCL
1000
\\MANMFG
1000

1070
     0
  0
MATERIAL
  5
C90E73C08D47D5C9
102
{ACAD_XDICTIONARY
360
C90E73C08D47D5CA
102
}
102
{ACAD_REACTORS
330
C90E73C08D47C631
102
}
330
C90E73C08D47C631
100
AcDbMaterial
  1
ByBlock
 72
     0
 43
0.0208333333333333
 43
0.0
 43
0.0
 43
0.0
 43
0.0
 43
0.0208333333333333
 43
0.0
 43
0.0
 43
0.0
 43
0.0
 43
1.0
 43
0.0
 43
0.0
 43
0.0
 43
0.0
 43
1.0
 77
     0
 47
0.0208333333333333
 47
0.0
 47
0.0
 47
0.0
 47
0.0
 47
0.0208333333333333
 47
0.0
 47
0.0
 47
0.0
 47
0.0
 47
1.0
 47
0.0
 47
0.0
 47
0.0
 47
0.0
 47
1.0
171
     0
 49
0.0208333333333333
 49
0.0
 49
0.0
 49
0.0
 49
0.0
 49
0.0208333333333333
 49
0.0
 49
0.0
 49
0.0
 49
0.0
 49
1.0
 49
0.0
 49
0.0
 49
0.0
 49
0.0
 49
1.0
175
     0
142
0.0208333333333333
142
0.0
142
0.0
142
0.0
142
0.0
142
0.0208333333333333
142
0.0
142
0.0
142
0.0
142
0.0
142
1.0
142
0.0
142
0.0
142
0.0
142
0.0
142
1.0
179
     0
144
0.0208333333333333
144
0.0
144
0.0
144
0.0
144
0.0
144
0.0208333333333333
144
0.0
144
0.0
144
0.0
144
0.0
144
1.0
144
0.0
144
0.0
144
0.0
144
0.0
144
1.0
147
0.0208333333333333
147
0.0
147
0.0
147
0.0
147
0.0
147
0.0208333333333333
147
0.0
147
0.0
147
0.0
147
0.0
147
1.0
147
0.0
147
0.0
147
0.0
147
0.0
147
1.0
  0
MATERIAL
  5
C90E73C08D47D5C1
102
{ACAD_XDICTIONARY
360
C90E73C08D47D5C2
102
}
102
{ACAD_REACTORS
330
C90E73C08D47C631
102
}
330
C90E73C08D47C631
100
AcDbMaterial
  1
ByLayer
 72
     0
 43
0.0208333333333333
 43
0.0
 43
0.0
 43
0.0
 43
0.0
 43
0.0208333333333333
 43
0.0
 43
0.0
 43
0.0
 43
0.0
 43
1.0
 43
0.0
 43
0.0
 43
0.0
 43
0.0
 43
1.0
 77
     0
 47
0.0208333333333333
 47
0.0
 47
0.0
 47
0.0
 47
0.0
 47
0.0208333333333333
 47
0.0
 47
0.0
 47
0.0
 47
0.0
 47
1.0
 47
0.0
 47
0.0
 47
0.0
 47
0.0
 47
1.0
171
     0
 49
0.0208333333333333
 49
0.0
 49
0.0
 49
0.0
 49
0.0
 49
0.0208333333333333
 49
0.0
 49
0.0
 49
0.0
 49
0.0
 49
1.0
 49
0.0
 49
0.0
 49
0.0
 49
0.0
 49
1.0
175
     0
142
0.0208333333333333
142
0.0
142
0.0
142
0.0
142
0.0
142
0.0208333333333333
142
0.0
142
0.0
142
0.0
142
0.0
142
1.0
142
0.0
142
0.0
142
0.0
142
0.0
142
1.0
179
     0
144
0.0208333333333333
144
0.0
144
0.0
144
0.0
144
0.0
144
0.0208333333333333
144
0.0
144
0.0
144
0.0
144
0.0
144
1.0
144
0.0
144
0.0
144
0.0
144
0.0
144
1.0
147
0.0208333333333333
147
0.0
147
0.0
147
0.0
147
0.0
147
0.0208333333333333
147
0.0
147
0.0
147
0.0
147
0.0
147
1.0
147
0.0
147
0.0
147
0.0
147
0.0
147
1.0
  0
MATERIAL
  5
C90E73C08D47D5D1
102
{ACAD_XDICTIONARY
360
C90E73C08D47D5D2
102
}
102
{ACAD_REACTORS
330
C90E73C08D47C631
102
}
330
C90E73C08D47C631
100
AcDbMaterial
  1
Global
 72
     0
 43
0.0208333333333333
 43
0.0
 43
0.0
 43
0.0
 43
0.0
 43
0.0208333333333333
 43
0.0
 43
0.0
 43
0.0
 43
0.0
 43
1.0
 43
0.0
 43
0.0
 43
0.0
 43
0.0
 43
1.0
 77
     0
 47
0.0208333333333333
 47
0.0
 47
0.0
 47
0.0
 47
0.0
 47
0.0208333333333333
 47
0.0
 47
0.0
 47
0.0
 47
0.0
 47
1.0
 47
0.0
 47
0.0
 47
0.0
 47
0.0
 47
1.0
171
     0
 49
0.0208333333333333
 49
0.0
 49
0.0
 49
0.0
 49
0.0
 49
0.0208333333333333
 49
0.0
 49
0.0
 49
0.0
 49
0.0
 49
1.0
 49
0.0
 49
0.0
 49
0.0
 49
0.0
 49
1.0
175
     0
142
0.0208333333333333
142
0.0
142
0.0
142
0.0
142
0.0
142
0.0208333333333333
142
0.0
142
0.0
142
0.0
142
0.0
142
1.0
142
0.0
142
0.0
142
0.0
142
0.0
142
1.0
179
     0
144
0.0208333333333333
144
0.0
144
0.0
144
0.0
144
0.0
144
0.0208333333333333
144
0.0
144
0.0
144
0.0
144
0.0
144
1.0
144
0.0
144
0.0
144
0.0
144
0.0
144
1.0
147
0.0208333333333333
147
0.0
147
0.0
147
0.0
147
0.0
147
0.0208333333333333
147
0.0
147
0.0
147
0.0
147
0.0
147
1.0
147
0.0
147
0.0
147
0.0
147
0.0
147
1.0
  0
MLEADERSTYLE
  5
C90E73C08D47D605
102
{ACAD_REACTORS
330
C90E73C08D47D604
102
}
330
C90E73C08D47D604
100
AcDbMLeaderStyle
179
     2
170
     2
171
     1
172
     0
 90
        2
 40
0.0
 41
0.0
173
     1
 91
-1056964608
340
C90E73C08D47C62A
 92
       -2
290
     1
 42
0.09
291
     1
 43
0.36
  3
Standard
 44
0.18
300

342
C90E73C08D47C628
174
     1
178
     6
175
     1
176
     0
 93
-1056964608
 45
0.18
292
     0
297
     0
 46
0.18
 94
-1056964608
 47
1.0
 49
1.0
140
1.0
293
     1
141
0.0
294
     1
177
     0
142
1.0
295
     1
296
     0
143
0.125
271
     0
272
     9
273
     9
298
     1
  0
MLINESTYLE
  5
C90E73C08D47D28C
102
{ACAD_REACTORS
330
C90E73C08D47C62D
102
}
330
C90E73C08D47C62D
100
AcDbMlineStyle
  2
EXPOSED
 70
     0
  3

 62
     0
 51
90.0
 52
90.0
 71
     2
 49
0.01
 62
   256
  6
DOT2
 49
-0.01
 62
   256
  6
DOT2
  0
MLINESTYLE
  5
C90E73C08D47C62E
102
{ACAD_REACTORS
330
C90E73C08D47C62D
102
}
330
C90E73C08D47C62D
100
AcDbMlineStyle
  2
STANDARD
 70
     0
  3

 62
   256
 51
90.0
 52
90.0
 71
     2
 49
0.5
 62
   256
  6
BYLAYER
 49
-0.5
 62
   256
  6
BYLAYER
  0
ACDBPLACEHOLDER
  5
C90E73C08D47C626
102
{ACAD_REACTORS
330
C90E73C08D47C625
102
}
330
C90E73C08D47C625
  0
SCALE
  5
C90E73C08D47D5F3
102
{ACAD_REACTORS
330
C90E73C08D47D5F2
102
}
330
C90E73C08D47D5F2
100
AcDbScale
 70
     0
300
1:1
140
1.0
141
1.0
290
     1
  0
SCALE
  5
C90E73C08D47D5F4
102
{ACAD_REACTORS
330
C90E73C08D47D5F2
102
}
330
C90E73C08D47D5F2
100
AcDbScale
 70
     0
300
1/128" = 1'-0"
140
0.0078125
141
12.0
290
     0
  0
SCALE
  5
C90E73C08D47D5F5
102
{ACAD_REACTORS
330
C90E73C08D47D5F2
102
}
330
C90E73C08D47D5F2
100
AcDbScale
 70
     0
300
1/64" = 1'-0"
140
0.015625
141
12.0
290
     0
  0
SCALE
  5
C90E73C08D47D5F6
102
{ACAD_REACTORS
330
C90E73C08D47D5F2
102
}
330
C90E73C08D47D5F2
100
AcDbScale
 70
     0
300
1/32" = 1'-0"
140
0.03125
141
12.0
290
     0
  0
SCALE
  5
C90E73C08D47D5F7
102
{ACAD_REACTORS
330
C90E73C08D47D5F2
102
}
330
C90E73C08D47D5F2
100
AcDbScale
 70
     0
300
1/16" = 1'-0"
140
0.0625
141
12.0
290
     0
  0
SCALE
  5
C90E73C08D47D5F8
102
{ACAD_REACTORS
330
C90E73C08D47D5F2
102
}
330
C90E73C08D47D5F2
100
AcDbScale
 70
     0
300
3/32" = 1'-0"
140
0.09375
141
12.0
290
     0
  0
SCALE
  5
C90E73C08D47D5F9
102
{ACAD_REACTORS
330
C90E73C08D47D5F2
102
}
330
C90E73C08D47D5F2
100
AcDbScale
 70
     0
300
1/8" = 1'-0"
140
0.125
141
12.0
290
     0
  0
SCALE
  5
C90E73C08D47D5FA
102
{ACAD_REACTORS
330
C90E73C08D47D5F2
102
}
330
C90E73C08D47D5F2
100
AcDbScale
 70
     0
300
3/16" = 1'-0"
140
0.1875
141
12.0
290
     0
  0
SCALE
  5
C90E73C08D47D5FB
102
{ACAD_REACTORS
330
C90E73C08D47D5F2
102
}
330
C90E73C08D47D5F2
100
AcDbScale
 70
     0
300
1/4" = 1'-0"
140
0.25
141
12.0
290
     0
  0
SCALE
  5
C90E73C08D47D5FC
102
{ACAD_REACTORS
330
C90E73C08D47D5F2
102
}
330
C90E73C08D47D5F2
100
AcDbScale
 70
     0
300
3/8" = 1'-0"
140
0.375
141
12.0
290
     0
  0
SCALE
  5
C90E73C08D47D5FD
102
{ACAD_REACTORS
330
C90E73C08D47D5F2
102
}
330
C90E73C08D47D5F2
100
AcDbScale
 70
     0
300
1/2" = 1'-0"
140
0.5
141
12.0
290
     0
  0
SCALE
  5
C90E73C08D47D5FE
102
{ACAD_REACTORS
330
C90E73C08D47D5F2
102
}
330
C90E73C08D47D5F2
100
AcDbScale
 70
     0
300
3/4" = 1'-0"
140
0.75
141
12.0
290
     0
  0
SCALE
  5
C90E73C08D47D5FF
102
{ACAD_REACTORS
330
C90E73C08D47D5F2
102
}
330
C90E73C08D47D5F2
100
AcDbScale
 70
     0
300
1" = 1'-0"
140
1.0
141
12.0
290
     0
  0
SCALE
  5
C90E73C08D47D600
102
{ACAD_REACTORS
330
C90E73C08D47D5F2
102
}
330
C90E73C08D47D5F2
100
AcDbScale
 70
     0
300
1-1/2" = 1'-0"
140
1.5
141
12.0
290
     0
  0
SCALE
  5
C90E73C08D47D601
102
{ACAD_REACTORS
330
C90E73C08D47D5F2
102
}
330
C90E73C08D47D5F2
100
AcDbScale
 70
     0
300
3" = 1'-0"
140
3.0
141
12.0
290
     0
  0
SCALE
  5
C90E73C08D47D602
102
{ACAD_REACTORS
330
C90E73C08D47D5F2
102
}
330
C90E73C08D47D5F2
100
AcDbScale
 70
     0
300
6" = 1'-0"
140
6.0
141
12.0
290
     0
  0
SCALE
  5
C90E73C08D47D603
102
{ACAD_REACTORS
330
C90E73C08D47D5F2
102
}
330
C90E73C08D47D5F2
100
AcDbScale
 70
     0
300
1'-0" = 1'-0"
140
12.0
141
12.0
290
     0
  0
ACDBSECTIONVIEWSTYLE
  5
C90E73C08D47D607
102
{ACAD_REACTORS
330
C90E73C08D47D606
102
}
330
C90E73C08D47D606
100
AcDbModelDocViewStyle
 70
     0
  3
Imperial24
290
     1
300
Imperial24
 90
        0
100
AcDbSectionViewStyle
 70
     0
 71
     0
 90
       78
 71
     1
340
C90E73C08D47C628
 62
   256
 40
0.24
340
0
340
0
 62
   256
 40
0.24
300
I, O, Q, S, X, Z
 40
0.48
 90
        3
 40
0.18
 90
        1
 71
     2
340
C90E73C08D47C62C
 90
       25
 62
   256
340
C90E73C08D47C62C
 90
       50
 62
   256
 40
0.24
 40
0.0
 40
0.24
 71
     3
340
C90E73C08D47C628
 62
   256
 40
0.24
 90
        1
 40
0.75
 90
        1
300
%<\AcVar ViewType \f "%tc1">% %<\AcVar ViewSectionStartId>%-%<\AcVar ViewSectionEndId>%\PSCALE %<\AcVar ViewScale \f "%sn">%
 71
     4
 62
   256
 62
   257
300
ANSI31
 40
1.0
 90
        0
290
     0
290
     0
 90
        6
 40
0.0
 40
1.570796326794896
 40
0.2617993877991494
 40
1.308996938995747
 40
-0.2617993877991494
 40
1.832595714594046
  0
TABLESTYLE
  5
C90E73C08D47CD2B
102
{ACAD_XDICTIONARY
360
C90E73C08D47D64E
102
}
102
{ACAD_REACTORS
330
C90E73C08D47CD2A
102
}
330
C90E73C08D47CD2A
100
AcDbTableStyle
280
     0
  3
Standard
 70
     0
 71
     0
 40
0.06
 41
0.06
280
     0
281
     0
  7
STANDARD
140
0.18
170
     2
 62
     0
 63
     7
283
     0
 90
        4
 91
        0
  1

274
    -2
284
     1
 64
     0
275
    -2
285
     1
 65
     0
276
    -2
286
     1
 66
     0
277
    -2
287
     1
 67
     0
278
    -2
288
     1
 68
     0
279
    -2
289
     1
 69
     0
  7
STANDARD
140
0.25
170
     5
 62
     0
 63
     7
283
     0
 90
        4
 91
        0
  1

274
    -2
284
     1
 64
     0
275
    -2
285
     1
 65
     0
276
    -2
286
     1
 66
     0
277
    -2
287
     1
 67
     0
278
    -2
288
     1
 68
     0
279
    -2
289
     1
 69
     0
  7
STANDARD
140
0.18
170
     5
 62
     0
 63
     7
283
     0
 90
        4
 91
        0
  1

274
    -2
284
     1
 64
     0
275
    -2
285
     1
 65
     0
276
    -2
286
     1
 66
     0
277
    -2
287
     1
 67
     0
278
    -2
288
     1
 68
     0
279
    -2
289
     1
 69
     0
  0
VISUALSTYLE
  5
C90E73C08D47D5DF
102
{ACAD_REACTORS
330
C90E73C08D47D5D9
102
}
330
C90E73C08D47D5D9
100
AcDbVisualStyle
  2
2dWireframe
 70
     4
177
     3
291
     0
 70
    58
 90
        0
176
     1
 90
        2
176
     1
 90
        0
176
     1
 90
        0
176
     1
 40
0.6
176
     1
 40
30.0
176
     1
 62
     7
420
 16777215
176
     1
 90
        1
176
     1
 90
        4
176
     1
 62
     7
176
     1
 62
   257
176
     1
 90
        1
176
     1
 90
        1
176
     1
 40
1.0
176
     1
 90
        0
176
     1
 62
   257
176
     1
 40
1.0
176
     1
 90
        1
176
     1
 90
        6
176
     1
 90
        2
176
     1
 62
     7
176
     1
 90
        5
176
     1
 90
        0
176
     1
 90
        0
176
     1
290
     0
176
     1
 90
        1
176
     1
 40
0.0
176
     1
 90
        0
176
     1
290
     1
176
     1
290
     1
176
     1
290
     0
176
     1
290
     0
176
     1
290
     0
176
     1
290
     0
176
     1
290
     0
176
     1
290
     0
176
     1
290
     0
176
     1
 90
       50
176
     1
 40
0.0
176
     1
 40
1.0
176
     1
 90
        0
176
     1
 62
    18
420
        0
176
     1
 90
       50
176
     1
 90
        3
176
     1
 62
     5
420
      255
176
     1
290
     0
176
     1
 90
       50
176
     1
 90
       50
176
     1
 90
       50
176
     1
290
     0
176
     1
 90
       50
176
     1
 62
   256
176
     0
 40
1.0
176
     0
 90
        2
176
     1
  1
strokes_ogs.tif
176
     1
290
     0
176
     1
 40
1.0
176
     1
 40
1.0
176
     1
  0
VISUALSTYLE
  5
C90E73C08D47D5DE
102
{ACAD_REACTORS
330
C90E73C08D47D5D9
102
}
330
C90E73C08D47D5D9
100
AcDbVisualStyle
  2
Basic
 70
     7
177
     3
291
     1
 70
    58
 90
        1
176
     1
 90
        0
176
     1
 90
        1
176
     1
 90
        0
176
     1
 40
0.6
176
     1
 40
30.0
176
     1
 62
     7
420
 16777215
176
     1
 90
        0
176
     1
 90
        4
176
     1
 62
     7
176
     1
 62
   257
176
     1
 90
        1
176
     1
 90
        1
176
     1
 40
1.0
176
     1
 90
        8
176
     1
 62
     7
176
     1
 40
1.0
176
     1
 90
        1
176
     1
 90
        6
176
     1
 90
        2
176
     1
 62
     7
176
     1
 90
        5
176
     1
 90
        0
176
     1
 90
        0
176
     1
290
     0
176
     1
 90
        1
176
     1
 40
0.0
176
     1
 90
        0
176
     1
290
     0
176
     1
290
     1
176
     1
290
     1
176
     1
290
     0
176
     1
290
     0
176
     1
290
     0
176
     1
290
     0
176
     1
290
     0
176
     1
290
     0
176
     1
 90
       50
176
     1
 40
0.0
176
     1
 40
1.0
176
     1
 90
        0
176
     1
 62
    18
420
        0
176
     1
 90
       50
176
     1
 90
        3
176
     1
 62
     5
420
      255
176
     1
290
     0
176
     1
 90
       50
176
     1
 90
       50
176
     1
 90
       50
176
     1
290
     0
176
     1
 90
       50
176
     1
 62
   256
176
     0
 40
1.0
176
     0
 90
        2
176
     1
  1
strokes_ogs.tif
176
     1
290
     0
176
     1
 40
1.0
176
     1
 40
1.0
176
     1
  0
VISUALSTYLE
  5
C90E73C08D47D5E5
102
{ACAD_REACTORS
330
C90E73C08D47D5D9
102
}
330
C90E73C08D47D5D9
100
AcDbVisualStyle
  2
Brighten
 70
    12
177
     3
291
     1
 70
    58
 90
        2
176
     1
 90
        2
176
     1
 90
        0
176
     1
 90
        0
176
     1
 40
0.6
176
     1
 40
30.0
176
     1
 62
     7
420
 16777215
176
     1
 90
        1
176
     1
 90
        4
176
     1
 62
     7
176
     1
 62
   257
176
     1
 90
        1
176
     1
 90
        1
176
     1
 40
1.0
176
     1
 90
        8
176
     1
 62
     7
176
     1
 40
1.0
176
     1
 90
        1
176
     1
 90
        6
176
     1
 90
        2
176
     1
 62
     7
176
     1
 90
        5
176
     1
 90
        0
176
     1
 90
        0
176
     1
290
     0
176
     1
 90
        1
176
     1
 40
50.0
176
     1
 90
        0
176
     1
290
     0
176
     1
290
     1
176
     1
290
     1
176
     1
290
     0
176
     1
290
     0
176
     1
290
     0
176
     1
290
     0
176
     1
290
     0
176
     1
290
     0
176
     1
 90
       50
176
     1
 40
0.0
176
     1
 40
1.0
176
     1
 90
        0
176
     1
 62
    18
420
        0
176
     1
 90
       50
176
     1
 90
        3
176
     1
 62
     5
420
      255
176
     1
290
     0
176
     1
 90
       50
176
     1
 90
       50
176
     1
 90
       50
176
     1
290
     0
176
     1
 90
       50
176
     1
 62
   256
176
     0
 40
1.0
176
     0
 90
        2
176
     1
  1
strokes_ogs.tif
176
     1
290
     0
176
     1
 40
1.0
176
     1
 40
1.0
176
     1
  0
VISUALSTYLE
  5
C90E73C08D47D5E9
102
{ACAD_REACTORS
330
C90E73C08D47D5D9
102
}
330
C90E73C08D47D5D9
100
AcDbVisualStyle
  2
ColorChange
 70
    16
177
     3
291
     1
 70
    58
 90
        2
176
     1
 90
        2
176
     1
 90
        3
176
     1
 90
        0
176
     1
 40
0.6
176
     1
 40
30.0
176
     1
 62
     8
420
  8421504
176
     1
 90
        1
176
     1
 90
        4
176
     1
 62
     7
176
     1
 62
   257
176
     1
 90
        1
176
     1
 90
        1
176
     1
 40
1.0
176
     1
 90
        8
176
     1
 62
     8
420
  8421504
176
     1
 40
1.0
176
     1
 90
        1
176
     1
 90
        6
176
     1
 90
        2
176
     1
 62
     7
176
     1
 90
        5
176
     1
 90
        0
176
     1
 90
        0
176
     1
290
     0
176
     1
 90
        1
176
     1
 40
0.0
176
     1
 90
        0
176
     1
290
     0
176
     1
290
     1
176
     1
290
     1
176
     1
290
     0
176
     1
290
     0
176
     1
290
     0
176
     1
290
     0
176
     1
290
     0
176
     1
290
     0
176
     1
 90
       50
176
     1
 40
0.0
176
     1
 40
1.0
176
     1
 90
        0
176
     1
 62
    18
420
        0
176
     1
 90
       50
176
     1
 90
        3
176
     1
 62
     5
420
      255
176
     1
290
     0
176
     1
 90
       50
176
     1
 90
       50
176
     1
 90
       50
176
     1
290
     0
176
     1
 90
       50
176
     1
 62
   256
176
     0
 40
1.0
176
     0
 90
        2
176
     1
  1
strokes_ogs.tif
176
     1
290
     0
176
     1
 40
1.0
176
     1
 40
1.0
176
     1
  0
VISUALSTYLE
  5
C90E73C08D47D5E2
102
{ACAD_REACTORS
330
C90E73C08D47D5D9
102
}
330
C90E73C08D47D5D9
100
AcDbVisualStyle
  2
Conceptual
 70
     9
177
     3
291
     0
 70
    58
 90
        3
176
     1
 90
        2
176
     1
 90
        0
176
     1
 90
        0
176
     1
 40
0.6
176
     1
 40
30.0
176
     1
 62
     7
420
 16777215
176
     1
 90
        2
176
     1
 90
        2
176
     1
 62
     7
176
     1
 62
   257
176
     1
 90
        1
176
     1
 90
        1
176
     1
 40
179.0
176
     1
 90
        8
176
     1
 62
     7
176
     1
 40
1.0
176
     1
 90
        1
176
     1
 90
        6
176
     1
 90
        2
176
     1
 62
     7
176
     1
 90
        3
176
     1
 90
        0
176
     1
 90
        0
176
     1
290
     0
176
     1
 90
        1
176
     1
 40
0.0
176
     1
 90
        0
176
     1
290
     0
176
     1
290
     1
176
     1
290
     1
176
     1
290
     0
176
     1
290
     0
176
     1
290
     0
176
     1
290
     0
176
     1
290
     0
176
     1
290
     0
176
     1
 90
       50
176
     1
 40
0.0
176
     1
 40
1.0
176
     1
 90
        0
176
     1
 62
    18
420
        0
176
     1
 90
       50
176
     1
 90
        3
176
     1
 62
     5
420
      255
176
     1
290
     0
176
     1
 90
       50
176
     1
 90
       50
176
     1
 90
       50
176
     1
290
     0
176
     1
 90
       50
176
     1
 62
   256
176
     0
 40
1.0
176
     0
 90
        2
176
     1
  1
strokes_ogs.tif
176
     1
290
     0
176
     1
 40
1.0
176
     1
 40
1.0
176
     1
  0
VISUALSTYLE
  5
C90E73C08D47D5E4
102
{ACAD_REACTORS
330
C90E73C08D47D5D9
102
}
330
C90E73C08D47D5D9
100
AcDbVisualStyle
  2
Dim
 70
    11
177
     3
291
     1
 70
    58
 90
        2
176
     1
 90
        2
176
     1
 90
        0
176
     1
 90
        0
176
     1
 40
0.6
176
     1
 40
30.0
176
     1
 62
     7
420
 16777215
176
     1
 90
        1
176
     1
 90
        4
176
     1
 62
     7
176
     1
 62
   257
176
     1
 90
        1
176
     1
 90
        1
176
     1
 40
1.0
176
     1
 90
        8
176
     1
 62
     7
176
     1
 40
1.0
176
     1
 90
        1
176
     1
 90
        6
176
     1
 90
        2
176
     1
 62
     7
176
     1
 90
        5
176
     1
 90
        0
176
     1
 90
        0
176
     1
290
     0
176
     1
 90
        1
176
     1
 40
-50.0
176
     1
 90
        0
176
     1
290
     0
176
     1
290
     1
176
     1
290
     1
176
     1
290
     0
176
     1
290
     0
176
     1
290
     0
176
     1
290
     0
176
     1
290
     0
176
     1
290
     0
176
     1
 90
       50
176
     1
 40
0.0
176
     1
 40
1.0
176
     1
 90
        0
176
     1
 62
    18
420
        0
176
     1
 90
       50
176
     1
 90
        3
176
     1
 62
     5
420
      255
176
     1
290
     0
176
     1
 90
       50
176
     1
 90
       50
176
     1
 90
       50
176
     1
290
     0
176
     1
 90
       50
176
     1
 62
   256
176
     0
 40
1.0
176
     0
 90
        2
176
     1
  1
strokes_ogs.tif
176
     1
290
     0
176
     1
 40
1.0
176
     1
 40
1.0
176
     1
  0
VISUALSTYLE
  5
C90E73C08D47D5F1
102
{ACAD_REACTORS
330
C90E73C08D47D5D9
102
}
330
C90E73C08D47D5D9
100
AcDbVisualStyle
  2
EdgeColorOff
 70
    22
177
     3
291
     1
 70
    58
 90
        2
176
     0
 90
        2
176
     0
 90
        0
176
     0
 90
        0
176
     0
 40
0.6
176
     0
 40
30.0
176
     0
 62
     7
420
 16777215
176
     0
 90
        1
176
     0
 90
        4
176
     0
 62
     7
176
     0
 62
   257
176
     0
 90
        1
176
     0
 90
        1
176
     0
 40
1.0
176
     0
 90
        8
176
     2
 62
     7
176
     0
 40
1.0
176
     0
 90
        1
176
     0
 90
        6
176
     0
 90
        2
176
     0
 62
     7
176
     0
 90
        5
176
     0
 90
        0
176
     0
 90
        0
176
     0
290
     0
176
     0
 90
        1
176
     0
 40
0.0
176
     0
 90
        0
176
     0
290
     0
176
     0
290
     1
176
     0
290
     1
176
     0
290
     0
176
     0
290
     0
176
     0
290
     0
176
     0
290
     0
176
     0
290
     0
176
     0
290
     0
176
     0
 90
       50
176
     0
 40
0.0
176
     0
 40
1.0
176
     0
 90
        0
176
     0
 62
    18
420
        0
176
     0
 90
       50
176
     0
 90
        3
176
     0
 62
     5
420
      255
176
     0
290
     0
176
     0
 90
       50
176
     0
 90
       50
176
     0
 90
       50
176
     0
290
     0
176
     0
 90
       50
176
     0
 62
   256
176
     0
 40
1.0
176
     0
 90
        2
176
     0
  1
strokes_ogs.tif
176
     0
290
     0
176
     0
 40
1.0
176
     0
 40
1.0
176
     0
  0
VISUALSTYLE
  5
C90E73C08D47D5E8
102
{ACAD_REACTORS
330
C90E73C08D47D5D9
102
}
330
C90E73C08D47D5D9
100
AcDbVisualStyle
  2
Facepattern
 70
    15
177
     3
291
     1
 70
    58
 90
        2
176
     1
 90
        2
176
     1
 90
        0
176
     1
 90
        0
176
     1
 40
0.6
176
     1
 40
30.0
176
     1
 62
     7
420
 16777215
176
     1
 90
        1
176
     1
 90
        4
176
     1
 62
     7
176
     1
 62
   257
176
     1
 90
        1
176
     1
 90
        1
176
     1
 40
1.0
176
     1
 90
        8
176
     1
 62
     7
176
     1
 40
1.0
176
     1
 90
        1
176
     1
 90
        6
176
     1
 90
        2
176
     1
 62
     7
176
     1
 90
        5
176
     1
 90
        0
176
     1
 90
        0
176
     1
290
     0
176
     1
 90
        1
176
     1
 40
0.0
176
     1
 90
        0
176
     1
290
     0
176
     1
290
     1
176
     1
290
     1
176
     1
290
     0
176
     1
290
     0
176
     1
290
     0
176
     1
290
     0
176
     1
290
     0
176
     1
290
     0
176
     1
 90
       50
176
     1
 40
0.0
176
     1
 40
1.0
176
     1
 90
        0
176
     1
 62
    18
420
        0
176
     1
 90
       50
176
     1
 90
        3
176
     1
 62
     5
420
      255
176
     1
290
     0
176
     1
 90
       50
176
     1
 90
       50
176
     1
 90
       50
176
     1
290
     0
176
     1
 90
       50
176
     1
 62
   256
176
     0
 40
1.0
176
     0
 90
        2
176
     1
  1
strokes_ogs.tif
176
     1
290
     0
176
     1
 40
1.0
176
     1
 40
1.0
176
     1
  0
VISUALSTYLE
  5
C90E73C08D47D5DA
102
{ACAD_REACTORS
330
C90E73C08D47D5D9
102
}
330
C90E73C08D47D5D9
100
AcDbVisualStyle
  2
Flat
 70
     0
177
     3
291
     1
 70
    58
 90
        2
176
     1
 90
        1
176
     1
 90
        1
176
     1
 90
        2
176
     1
 40
0.6
176
     1
 40
30.0
176
     1
 62
     7
420
 16777215
176
     1
 90
        0
176
     1
 90
        0
176
     1
 62
     7
176
     1
 62
   257
176
     1
 90
        1
176
     1
 90
        1
176
     1
 40
1.0
176
     1
 90
        8
176
     1
 62
     7
176
     1
 40
1.0
176
     1
 90
        1
176
     1
 90
        6
176
     1
 90
        2
176
     1
 62
     7
176
     1
 90
        5
176
     1
 90
        0
176
     1
 90
        0
176
     1
290
     0
176
     1
 90
       13
176
     1
 40
0.0
176
     1
 90
        0
176
     1
290
     0
176
     1
290
     1
176
     1
290
     1
176
     1
290
     0
176
     1
290
     0
176
     1
290
     0
176
     1
290
     0
176
     1
290
     0
176
     1
290
     0
176
     1
 90
       50
176
     1
 40
0.0
176
     1
 40
1.0
176
     1
 90
        0
176
     1
 62
    18
420
        0
176
     1
 90
       50
176
     1
 90
        3
176
     1
 62
     5
420
      255
176
     1
290
     0
176
     1
 90
       50
176
     1
 90
       50
176
     1
 90
       50
176
     1
290
     0
176
     1
 90
       50
176
     1
 62
   256
176
     0
 40
1.0
176
     0
 90
        2
176
     1
  1
strokes_ogs.tif
176
     1
290
     0
176
     1
 40
1.0
176
     1
 40
1.0
176
     1
  0
VISUALSTYLE
  5
C90E73C08D47D5DB
102
{ACAD_REACTORS
330
C90E73C08D47D5D9
102
}
330
C90E73C08D47D5D9
100
AcDbVisualStyle
  2
FlatWithEdges
 70
     1
177
     3
291
     1
 70
    58
 90
        2
176
     1
 90
        1
176
     1
 90
        1
176
     1
 90
        2
176
     1
 40
0.6
176
     1
 40
30.0
176
     1
 62
     7
420
 16777215
176
     1
 90
        1
176
     1
 90
        0
176
     1
 62
     7
176
     1
 62
   257
176
     1
 90
        1
176
     1
 90
        1
176
     1
 40
1.0
176
     1
 90
        0
176
     1
 62
   257
176
     1
 40
1.0
176
     1
 90
        1
176
     1
 90
        6
176
     1
 90
        2
176
     1
 62
     7
176
     1
 90
        5
176
     1
 90
        0
176
     1
 90
        0
176
     1
290
     0
176
     1
 90
       13
176
     1
 40
0.0
176
     1
 90
        0
176
     1
290
     0
176
     1
290
     1
176
     1
290
     1
176
     1
290
     0
176
     1
290
     0
176
     1
290
     0
176
     1
290
     0
176
     1
290
     0
176
     1
290
     0
176
     1
 90
       50
176
     1
 40
0.0
176
     1
 40
1.0
176
     1
 90
        0
176
     1
 62
    18
420
        0
176
     1
 90
       50
176
     1
 90
        3
176
     1
 62
     5
420
      255
176
     1
290
     0
176
     1
 90
       50
176
     1
 90
       50
176
     1
 90
       50
176
     1
290
     0
176
     1
 90
       50
176
     1
 62
   256
176
     0
 40
1.0
176
     0
 90
        2
176
     1
  1
strokes_ogs.tif
176
     1
290
     0
176
     1
 40
1.0
176
     1
 40
1.0
176
     1
  0
VISUALSTYLE
  5
C90E73C08D47D5DC
102
{ACAD_REACTORS
330
C90E73C08D47D5D9
102
}
330
C90E73C08D47D5D9
100
AcDbVisualStyle
  2
Gouraud
 70
     2
177
     3
291
     1
 70
    58
 90
        2
176
     1
 90
        2
176
     1
 90
        1
176
     1
 90
        2
176
     1
 40
0.6
176
     1
 40
30.0
176
     1
 62
     7
420
 16777215
176
     1
 90
        0
176
     1
 90
        0
176
     1
 62
     7
176
     1
 62
   257
176
     1
 90
        1
176
     1
 90
        1
176
     1
 40
1.0
176
     1
 90
        0
176
     1
 62
     7
176
     1
 40
1.0
176
     1
 90
        1
176
     1
 90
        6
176
     1
 90
        2
176
     1
 62
     7
176
     1
 90
        5
176
     1
 90
        0
176
     1
 90
        0
176
     1
290
     0
176
     1
 90
       13
176
     1
 40
0.0
176
     1
 90
        0
176
     1
290
     0
176
     1
290
     1
176
     1
290
     1
176
     1
290
     0
176
     1
290
     0
176
     1
290
     0
176
     1
290
     0
176
     1
290
     0
176
     1
290
     0
176
     1
 90
       50
176
     1
 40
0.0
176
     1
 40
1.0
176
     1
 90
        0
176
     1
 62
    18
420
        0
176
     1
 90
       50
176
     1
 90
        3
176
     1
 62
     5
420
      255
176
     1
290
     0
176
     1
 90
       50
176
     1
 90
       50
176
     1
 90
       50
176
     1
290
     0
176
     1
 90
       50
176
     1
 62
   256
176
     0
 40
1.0
176
     0
 90
        2
176
     1
  1
strokes_ogs.tif
176
     1
290
     0
176
     1
 40
1.0
176
     1
 40
1.0
176
     1
  0
VISUALSTYLE
  5
C90E73C08D47D5DD
102
{ACAD_REACTORS
330
C90E73C08D47D5D9
102
}
330
C90E73C08D47D5D9
100
AcDbVisualStyle
  2
GouraudWithEdges
 70
     3
177
     3
291
     1
 70
    58
 90
        2
176
     1
 90
        2
176
     1
 90
        1
176
     1
 90
        2
176
     1
 40
0.6
176
     1
 40
30.0
176
     1
 62
     7
420
 16777215
176
     1
 90
        1
176
     1
 90
        0
176
     1
 62
     7
176
     1
 62
   257
176
     1
 90
        1
176
     1
 90
        1
176
     1
 40
1.0
176
     1
 90
        0
176
     1
 62
   257
176
     1
 40
1.0
176
     1
 90
        1
176
     1
 90
        6
176
     1
 90
        2
176
     1
 62
     7
176
     1
 90
        5
176
     1
 90
        0
176
     1
 90
        0
176
     1
290
     0
176
     1
 90
       13
176
     1
 40
0.0
176
     1
 90
        0
176
     1
290
     0
176
     1
290
     1
176
     1
290
     1
176
     1
290
     0
176
     1
290
     0
176
     1
290
     0
176
     1
290
     0
176
     1
290
     0
176
     1
290
     0
176
     1
 90
       50
176
     1
 40
0.0
176
     1
 40
1.0
176
     1
 90
        0
176
     1
 62
    18
420
        0
176
     1
 90
       50
176
     1
 90
        3
176
     1
 62
     5
420
      255
176
     1
290
     0
176
     1
 90
       50
176
     1
 90
       50
176
     1
 90
       50
176
     1
290
     0
176
     1
 90
       50
176
     1
 62
   256
176
     0
 40
1.0
176
     0
 90
        2
176
     1
  1
strokes_ogs.tif
176
     1
290
     0
176
     1
 40
1.0
176
     1
 40
1.0
176
     1
  0
VISUALSTYLE
  5
C90E73C08D47D5E1
102
{ACAD_REACTORS
330
C90E73C08D47D5D9
102
}
330
C90E73C08D47D5D9
100
AcDbVisualStyle
  2
Hidden
 70
     6
177
     3
291
     0
 70
    58
 90
        1
176
     1
 90
        2
176
     1
 90
        2
176
     1
 90
        0
176
     1
 40
0.6
176
     1
 40
30.0
176
     1
 62
     7
420
 16777215
176
     1
 90
        2
176
     1
 90
        2
176
     1
 62
     7
176
     1
 62
   257
176
     1
 90
        2
176
     1
 90
        1
176
     1
 40
40.0
176
     1
 90
        0
176
     1
 62
   257
176
     1
 40
1.0
176
     1
 90
        1
176
     1
 90
        6
176
     1
 90
        2
176
     1
 62
     7
176
     1
 90
        3
176
     1
 90
        0
176
     1
 90
        0
176
     1
290
     0
176
     1
 90
        1
176
     1
 40
0.0
176
     1
 90
        0
176
     1
290
     0
176
     1
290
     1
176
     1
290
     1
176
     1
290
     0
176
     1
290
     0
176
     1
290
     0
176
     1
290
     0
176
     1
290
     0
176
     1
290
     0
176
     1
 90
       50
176
     1
 40
0.0
176
     1
 40
1.0
176
     1
 90
        0
176
     1
 62
    18
420
        0
176
     1
 90
       50
176
     1
 90
        3
176
     1
 62
     5
420
      255
176
     1
290
     0
176
     1
 90
       50
176
     1
 90
       50
176
     1
 90
       50
176
     1
290
     0
176
     1
 90
       50
176
     1
 62
   256
176
     0
 40
1.0
176
     0
 90
        2
176
     1
  1
strokes_ogs.tif
176
     1
290
     0
176
     1
 40
1.0
176
     1
 40
1.0
176
     1
  0
VISUALSTYLE
  5
C90E73C08D47D5EF
102
{ACAD_REACTORS
330
C90E73C08D47D5D9
102
}
330
C90E73C08D47D5D9
100
AcDbVisualStyle
  2
JitterOff
 70
    20
177
     3
291
     1
 70
    58
 90
        2
176
     0
 90
        2
176
     0
 90
        0
176
     0
 90
        0
176
     0
 40
0.6
176
     0
 40
30.0
176
     0
 62
     7
420
 16777215
176
     0
 90
        1
176
     0
 90
        4
176
     0
 62
     7
176
     0
 62
   257
176
     0
 90
        1
176
     0
 90
        1
176
     0
 40
1.0
176
     0
 90
       10
176
     2
 62
     7
176
     0
 40
1.0
176
     0
 90
        1
176
     0
 90
        6
176
     0
 90
        2
176
     0
 62
     7
176
     0
 90
        5
176
     0
 90
        0
176
     0
 90
        0
176
     0
290
     0
176
     0
 90
        1
176
     0
 40
0.0
176
     0
 90
        0
176
     0
290
     0
176
     0
290
     1
176
     0
290
     1
176
     0
290
     0
176
     0
290
     0
176
     0
290
     0
176
     0
290
     0
176
     0
290
     0
176
     0
290
     0
176
     0
 90
       50
176
     0
 40
0.0
176
     0
 40
1.0
176
     0
 90
        0
176
     0
 62
    18
420
        0
176
     0
 90
       50
176
     0
 90
        3
176
     0
 62
     5
420
      255
176
     0
290
     0
176
     0
 90
       50
176
     0
 90
       50
176
     0
 90
       50
176
     0
290
     0
176
     0
 90
       50
176
     0
 62
   256
176
     0
 40
1.0
176
     0
 90
        2
176
     0
  1
strokes_ogs.tif
176
     0
290
     0
176
     0
 40
1.0
176
     0
 40
1.0
176
     0
  0
VISUALSTYLE
  5
C90E73C08D47D5E7
102
{ACAD_REACTORS
330
C90E73C08D47D5D9
102
}
330
C90E73C08D47D5D9
100
AcDbVisualStyle
  2
Linepattern
 70
    14
177
     3
291
     1
 70
    58
 90
        2
176
     1
 90
        2
176
     1
 90
        0
176
     1
 90
        0
176
     1
 40
0.6
176
     1
 40
30.0
176
     1
 62
     7
420
 16777215
176
     1
 90
        1
176
     1
 90
        4
176
     1
 62
     7
176
     1
 62
   257
176
     1
 90
        7
176
     1
 90
        7
176
     1
 40
1.0
176
     1
 90
        8
176
     1
 62
     7
176
     1
 40
1.0
176
     1
 90
        1
176
     1
 90
        6
176
     1
 90
        2
176
     1
 62
     7
176
     1
 90
        5
176
     1
 90
        0
176
     1
 90
        0
176
     1
290
     0
176
     1
 90
        1
176
     1
 40
0.0
176
     1
 90
        0
176
     1
290
     0
176
     1
290
     1
176
     1
290
     1
176
     1
290
     0
176
     1
290
     0
176
     1
290
     0
176
     1
290
     0
176
     1
290
     0
176
     1
290
     0
176
     1
 90
       50
176
     1
 40
0.0
176
     1
 40
1.0
176
     1
 90
        0
176
     1
 62
    18
420
        0
176
     1
 90
       50
176
     1
 90
        3
176
     1
 62
     5
420
      255
176
     1
290
     0
176
     1
 90
       50
176
     1
 90
       50
176
     1
 90
       50
176
     1
290
     0
176
     1
 90
       50
176
     1
 62
   256
176
     0
 40
1.0
176
     0
 90
        2
176
     1
  1
strokes_ogs.tif
176
     1
290
     0
176
     1
 40
1.0
176
     1
 40
1.0
176
     1
  0
VISUALSTYLE
  5
C90E73C08D47D5F0
102
{ACAD_REACTORS
330
C90E73C08D47D5D9
102
}
330
C90E73C08D47D5D9
100
AcDbVisualStyle
  2
OverhangOff
 70
    21
177
     3
291
     1
 70
    58
 90
        2
176
     0
 90
        2
176
     0
 90
        0
176
     0
 90
        0
176
     0
 40
0.6
176
     0
 40
30.0
176
     0
 62
     7
420
 16777215
176
     0
 90
        1
176
     0
 90
        4
176
     0
 62
     7
176
     0
 62
   257
176
     0
 90
        1
176
     0
 90
        1
176
     0
 40
1.0
176
     0
 90
        9
176
     2
 62
     7
176
     0
 40
1.0
176
     0
 90
        1
176
     0
 90
        6
176
     0
 90
        2
176
     0
 62
     7
176
     0
 90
        5
176
     0
 90
        0
176
     0
 90
        0
176
     0
290
     0
176
     0
 90
        1
176
     0
 40
0.0
176
     0
 90
        0
176
     0
290
     0
176
     0
290
     1
176
     0
290
     1
176
     0
290
     0
176
     0
290
     0
176
     0
290
     0
176
     0
290
     0
176
     0
290
     0
176
     0
290
     0
176
     0
 90
       50
176
     0
 40
0.0
176
     0
 40
1.0
176
     0
 90
        0
176
     0
 62
    18
420
        0
176
     0
 90
       50
176
     0
 90
        3
176
     0
 62
     5
420
      255
176
     0
290
     0
176
     0
 90
       50
176
     0
 90
       50
176
     0
 90
       50
176
     0
290
     0
176
     0
 90
       50
176
     0
 62
   256
176
     0
 40
1.0
176
     0
 90
        2
176
     0
  1
strokes_ogs.tif
176
     0
290
     0
176
     0
 40
1.0
176
     0
 40
1.0
176
     0
  0
VISUALSTYLE
  5
C90E73C08D47D5E3
102
{ACAD_REACTORS
330
C90E73C08D47D5D9
102
}
330
C90E73C08D47D5D9
100
AcDbVisualStyle
  2
Realistic
 70
     8
177
     3
291
     0
 70
    58
 90
        2
176
     1
 90
        3
176
     1
 90
        0
176
     1
 90
        2
176
     1
 40
0.6
176
     1
 40
30.0
176
     1
 62
     7
420
 16777215
176
     1
 90
        0
176
     1
 90
        0
176
     1
 62
     7
176
     1
 62
   257
176
     1
 90
        1
176
     1
 90
        1
176
     1
 40
1.0
176
     1
 90
        8
176
     1
 62
   257
176
     1
 40
1.0
176
     1
 90
        1
176
     1
 90
        6
176
     1
 90
        2
176
     1
 62
     7
176
     1
 90
        3
176
     1
 90
        0
176
     1
 90
        0
176
     1
290
     0
176
     1
 90
       13
176
     1
 40
0.0
176
     1
 90
        0
176
     1
290
     0
176
     1
290
     1
176
     1
290
     1
176
     1
290
     0
176
     1
290
     0
176
     1
290
     0
176
     1
290
     0
176
     1
290
     0
176
     1
290
     0
176
     1
 90
       50
176
     1
 40
0.0
176
     1
 40
1.0
176
     1
 90
        0
176
     1
 62
    18
420
        0
176
     1
 90
       50
176
     1
 90
        3
176
     1
 62
     5
420
      255
176
     1
290
     0
176
     1
 90
       50
176
     1
 90
       50
176
     1
 90
       50
176
     1
290
     0
176
     1
 90
       50
176
     1
 62
   256
176
     0
 40
1.0
176
     0
 90
        2
176
     1
  1
strokes_ogs.tif
176
     1
290
     0
176
     1
 40
1.0
176
     1
 40
1.0
176
     1
  0
VISUALSTYLE
  5
C90E73C08D47D5EE
102
{ACAD_REACTORS
330
C90E73C08D47D5D9
102
}
330
C90E73C08D47D5D9
100
AcDbVisualStyle
  2
Shaded
 70
    27
177
     3
291
     0
 70
    58
 90
        2
176
     1
 90
        2
176
     1
 90
        1
176
     1
 90
        2
176
     1
 40
0.6
176
     1
 40
30.0
176
     1
 62
     7
420
 16777215
176
     1
 90
        0
176
     1
 90
        4
176
     1
 62
     7
176
     1
 62
   257
176
     1
 90
        1
176
     1
 90
        1
176
     1
 40
1.0
176
     1
 90
        8
176
     1
 62
   257
176
     1
 40
1.0
176
     1
 90
        1
176
     1
 90
        6
176
     1
 90
        2
176
     1
 62
     8
420
  7895160
176
     1
 90
        3
176
     1
 90
        0
176
     1
 90
        0
176
     1
290
     0
176
     1
 90
        5
176
     1
 40
0.0
176
     1
 90
        0
176
     1
290
     0
176
     1
290
     1
176
     1
290
     1
176
     1
290
     0
176
     1
290
     0
176
     1
290
     0
176
     1
290
     0
176
     1
290
     0
176
     1
290
     0
176
     1
 90
       50
176
     1
 40
0.0
176
     1
 40
1.0
176
     1
 90
        0
176
     1
 62
    18
420
        0
176
     1
 90
       50
176
     1
 90
        3
176
     1
 62
     5
420
      255
176
     1
290
     0
176
     1
 90
       50
176
     1
 90
       50
176
     1
 90
       50
176
     1
290
     0
176
     1
 90
       50
176
     1
 62
   256
176
     0
 40
1.0
176
     0
 90
        2
176
     1
  1
strokes_ogs.tif
176
     1
290
     0
176
     1
 40
1.0
176
     1
 40
1.0
176
     1
  0
VISUALSTYLE
  5
C90E73C08D47D5ED
102
{ACAD_REACTORS
330
C90E73C08D47D5D9
102
}
330
C90E73C08D47D5D9
100
AcDbVisualStyle
  2
Shaded with edges
 70
    26
177
     3
291
     0
 70
    58
 90
        2
176
     1
 90
        2
176
     1
 90
        1
176
     1
 90
        2
176
     1
 40
0.6
176
     1
 40
30.0
176
     1
 62
     7
420
 16777215
176
     1
 90
        1
176
     1
 90
        2
176
     1
 62
     7
176
     1
 62
   257
176
     1
 90
        2
176
     1
 90
        1
176
     1
 40
1.0
176
     1
 90
        8
176
     1
 62
   257
176
     1
 40
1.0
176
     1
 90
        1
176
     1
 90
        6
176
     1
 90
        2
176
     1
 62
     7
176
     1
 90
        3
176
     1
 90
        0
176
     1
 90
        0
176
     1
290
     0
176
     1
 90
        5
176
     1
 40
0.0
176
     1
 90
        0
176
     1
290
     0
176
     1
290
     1
176
     1
290
     1
176
     1
290
     0
176
     1
290
     0
176
     1
290
     0
176
     1
290
     0
176
     1
290
     0
176
     1
290
     0
176
     1
 90
       50
176
     1
 40
0.0
176
     1
 40
1.0
176
     1
 90
        0
176
     1
 62
    18
420
        0
176
     1
 90
       50
176
     1
 90
        3
176
     1
 62
     5
420
      255
176
     1
290
     0
176
     1
 90
       50
176
     1
 90
       50
176
     1
 90
       50
176
     1
290
     0
176
     1
 90
       50
176
     1
 62
   256
176
     0
 40
1.0
176
     0
 90
        2
176
     1
  1
strokes_ogs.tif
176
     1
290
     0
176
     1
 40
1.0
176
     1
 40
1.0
176
     1
  0
VISUALSTYLE
  5
C90E73C08D47D5EA
102
{ACAD_REACTORS
330
C90E73C08D47D5D9
102
}
330
C90E73C08D47D5D9
100
AcDbVisualStyle
  2
Shades of Gray
 70
    23
177
     3
291
     0
 70
    58
 90
        2
176
     1
 90
        2
176
     1
 90
        3
176
     1
 90
        0
176
     1
 40
0.6
176
     1
 40
30.0
176
     1
 62
     7
420
 16777215
176
     1
 90
        2
176
     1
 90
        2
176
     1
 62
     7
176
     1
 62
     7
176
     1
 90
        1
176
     1
 90
        1
176
     1
 40
40.0
176
     1
 90
        8
176
     1
 62
     7
176
     1
 40
1.0
176
     1
 90
        1
176
     1
 90
        6
176
     1
 90
        2
176
     1
 62
     7
176
     1
 90
        3
176
     1
 90
        0
176
     1
 90
        0
176
     1
290
     0
176
     1
 90
        1
176
     1
 40
0.0
176
     1
 90
        0
176
     1
290
     0
176
     1
290
     1
176
     1
290
     1
176
     1
290
     0
176
     1
290
     0
176
     1
290
     0
176
     1
290
     0
176
     1
290
     0
176
     1
290
     0
176
     1
 90
       50
176
     1
 40
0.0
176
     1
 40
1.0
176
     1
 90
        0
176
     1
 62
    18
420
        0
176
     1
 90
       50
176
     1
 90
        3
176
     1
 62
     5
420
      255
176
     1
290
     0
176
     1
 90
       50
176
     1
 90
       50
176
     1
 90
       50
176
     1
290
     0
176
     1
 90
       50
176
     1
 62
   256
176
     0
 40
1.0
176
     0
 90
        2
176
     1
  1
strokes_ogs.tif
176
     1
290
     0
176
     1
 40
1.0
176
     1
 40
1.0
176
     1
  0
VISUALSTYLE
  5
C90E73C08D47D5EB
102
{ACAD_REACTORS
330
C90E73C08D47D5D9
102
}
330
C90E73C08D47D5D9
100
AcDbVisualStyle
  2
Sketchy
 70
    24
177
     3
291
     0
 70
    58
 90
        1
176
     1
 90
        2
176
     1
 90
        2
176
     1
 90
        0
176
     1
 40
0.6
176
     1
 40
30.0
176
     1
 62
     7
420
 16777215
176
     1
 90
        2
176
     1
 90
        2
176
     1
 62
     7
176
     1
 62
     7
176
     1
 90
        1
176
     1
 90
        1
176
     1
 40
40.0
176
     1
 90
       11
176
     1
 62
     7
176
     1
 40
1.0
176
     1
 90
        1
176
     1
 90
        6
176
     1
 90
        2
176
     1
 62
     7
176
     1
 90
        6
176
     1
 90
        0
176
     1
 90
        0
176
     1
290
     0
176
     1
 90
        1
176
     1
 40
0.0
176
     1
 90
        0
176
     1
290
     0
176
     1
290
     1
176
     1
290
     1
176
     1
290
     0
176
     1
290
     0
176
     1
290
     0
176
     1
290
     0
176
     1
290
     0
176
     1
290
     0
176
     1
 90
       50
176
     1
 40
0.0
176
     1
 40
1.0
176
     1
 90
        0
176
     1
 62
    18
420
        0
176
     1
 90
       50
176
     1
 90
        3
176
     1
 62
     5
420
      255
176
     1
290
     0
176
     1
 90
       50
176
     1
 90
       50
176
     1
 90
       50
176
     1
290
     0
176
     1
 90
       50
176
     1
 62
   256
176
     0
 40
1.0
176
     0
 90
        2
176
     1
  1
strokes_ogs.tif
176
     1
290
     0
176
     1
 40
1.0
176
     1
 40
1.0
176
     1
  0
VISUALSTYLE
  5
C90E73C08D47D5E6
102
{ACAD_REACTORS
330
C90E73C08D47D5D9
102
}
330
C90E73C08D47D5D9
100
AcDbVisualStyle
  2
Thicken
 70
    13
177
     3
291
     1
 70
    58
 90
        2
176
     1
 90
        2
176
     1
 90
        0
176
     1
 90
        0
176
     1
 40
0.6
176
     1
 40
30.0
176
     1
 62
     7
420
 16777215
176
     1
 90
        1
176
     1
 90
        4
176
     1
 62
     7
176
     1
 62
   257
176
     1
 90
        1
176
     1
 90
        1
176
     1
 40
1.0
176
     1
 90
       12
176
     1
 62
     7
176
     1
 40
1.0
176
     1
 90
        1
176
     1
 90
        6
176
     1
 90
        2
176
     1
 62
     7
176
     1
 90
        5
176
     1
 90
        0
176
     1
 90
        0
176
     1
290
     0
176
     1
 90
        1
176
     1
 40
0.0
176
     1
 90
        0
176
     1
290
     0
176
     1
290
     1
176
     1
290
     1
176
     1
290
     0
176
     1
290
     0
176
     1
290
     0
176
     1
290
     0
176
     1
290
     0
176
     1
290
     0
176
     1
 90
       50
176
     1
 40
0.0
176
     1
 40
1.0
176
     1
 90
        0
176
     1
 62
    18
420
        0
176
     1
 90
       50
176
     1
 90
        3
176
     1
 62
     5
420
      255
176
     1
290
     0
176
     1
 90
       50
176
     1
 90
       50
176
     1
 90
       50
176
     1
290
     0
176
     1
 90
       50
176
     1
 62
   256
176
     0
 40
1.0
176
     0
 90
        2
176
     1
  1
strokes_ogs.tif
176
     1
290
     0
176
     1
 40
1.0
176
     1
 40
1.0
176
     1
  0
VISUALSTYLE
  5
C90E73C08D47D5E0
102
{ACAD_REACTORS
330
C90E73C08D47D5D9
102
}
330
C90E73C08D47D5D9
100
AcDbVisualStyle
  2
Wireframe
 70
     5
177
     3
291
     0
 70
    58
 90
        0
176
     1
 90
        2
176
     1
 90
        0
176
     1
 90
        0
176
     1
 40
0.6
176
     1
 40
30.0
176
     1
 62
     7
420
 16777215
176
     1
 90
        1
176
     1
 90
        4
176
     1
 62
     7
176
     1
 62
   257
176
     1
 90
        1
176
     1
 90
        1
176
     1
 40
1.0
176
     1
 90
        0
176
     1
 62
   257
176
     1
 40
1.0
176
     1
 90
        1
176
     1
 90
        6
176
     1
 90
        2
176
     1
 62
     7
176
     1
 90
        3
176
     1
 90
        0
176
     1
 90
        0
176
     1
290
     0
176
     1
 90
        1
176
     1
 40
0.0
176
     1
 90
        0
176
     1
290
     0
176
     1
290
     1
176
     1
290
     1
176
     1
290
     0
176
     1
290
     0
176
     1
290
     0
176
     1
290
     0
176
     1
290
     0
176
     1
290
     0
176
     1
 90
       50
176
     1
 40
0.0
176
     1
 40
1.0
176
     1
 90
        0
176
     1
 62
    18
420
        0
176
     1
 90
       50
176
     1
 90
        3
176
     1
 62
     5
420
      255
176
     1
290
     0
176
     1
 90
       50
176
     1
 90
       50
176
     1
 90
       50
176
     1
290
     0
176
     1
 90
       50
176
     1
 62
   256
176
     0
 40
1.0
176
     0
 90
        2
176
     1
  1
strokes_ogs.tif
176
     1
290
     0
176
     1
 40
1.0
176
     1
 40
1.0
176
     1
  0
VISUALSTYLE
  5
C90E73C08D47D5EC
102
{ACAD_REACTORS
330
C90E73C08D47D5D9
102
}
330
C90E73C08D47D5D9
100
AcDbVisualStyle
  2
X-Ray
 70
    25
177
     3
291
     0
 70
    58
 90
        2
176
     1
 90
        2
176
     1
 90
        1
176
     1
 90
        1
176
     1
 40
0.5
176
     1
 40
30.0
176
     1
 62
     7
420
 16777215
176
     1
 90
        1
176
     1
 90
        0
176
     1
 62
     7
176
     1
 62
   257
176
     1
 90
        1
176
     1
 90
        1
176
     1
 40
1.0
176
     1
 90
        8
176
     1
 62
     7
176
     1
 40
1.0
176
     1
 90
        1
176
     1
 90
        6
176
     1
 90
        2
176
     1
 62
     7
176
     1
 90
        3
176
     1
 90
        0
176
     1
 90
        0
176
     1
290
     0
176
     1
 90
       13
176
     1
 40
0.0
176
     1
 90
        0
176
     1
290
     0
176
     1
290
     1
176
     1
290
     1
176
     1
290
     0
176
     1
290
     0
176
     1
290
     0
176
     1
290
     0
176
     1
290
     0
176
     1
290
     0
176
     1
 90
       50
176
     1
 40
0.0
176
     1
 40
1.0
176
     1
 90
        0
176
     1
 62
    18
420
        0
176
     1
 90
       50
176
     1
 90
        3
176
     1
 62
     5
420
      255
176
     1
290
     0
176
     1
 90
       50
176
     1
 90
       50
176
     1
 90
       50
176
     1
290
     0
176
     1
 90
       50
176
     1
 62
   256
176
     0
 40
1.0
176
     0
 90
        2
176
     1
  1
strokes_ogs.tif
176
     1
290
     0
176
     1
 40
1.0
176
     1
 40
1.0
176
     1
  0
DICTIONARYVAR
  5
C90E73C08D47D640
102
{ACAD_REACTORS
330
C90E73C08D47CD5A
102
}
330
C90E73C08D47CD5A
100
DictionaryVariables
280
     0
  1
1:1
  0
DICTIONARYVAR
  5
C90E73C08D47D63C
102
{ACAD_REACTORS
330
C90E73C08D47CD5A
102
}
330
C90E73C08D47CD5A
100
DictionaryVariables
280
     0
  1
STANDARD
  0
DICTIONARYVAR
  5
C90E73C08D47CD5B
102
{ACAD_REACTORS
330
C90E73C08D47CD5A
102
}
330
C90E73C08D47CD5A
100
DictionaryVariables
280
     0
  1
STANDARD
  0
DICTIONARYVAR
  5
C90E73C08D47D63D
102
{ACAD_REACTORS
330
C90E73C08D47CD5A
102
}
330
C90E73C08D47CD5A
100
DictionaryVariables
280
     0
  1
Imperial24
  0
DICTIONARYVAR
  5
C90E73C08D47D63E
102
{ACAD_REACTORS
330
C90E73C08D47CD5A
102
}
330
C90E73C08D47CD5A
100
DictionaryVariables
280
     0
  1
Imperial24
  0
DICTIONARYVAR
  5
C90E73C08D47D642
102
{ACAD_REACTORS
330
C90E73C08D47CD5A
102
}
330
C90E73C08D47CD5A
100
DictionaryVariables
280
     0
  1
1
  0
DICTIONARYVAR
  5
C90E73C08D47D643
102
{ACAD_REACTORS
330
C90E73C08D47CD5A
102
}
330
C90E73C08D47CD5A
100
DictionaryVariables
280
     0
  1
15
  0
DICTIONARYVAR
  5
C90E73C08D47D641
102
{ACAD_REACTORS
330
C90E73C08D47CD5A
102
}
330
C90E73C08D47CD5A
100
DictionaryVariables
280
     0
  1
0
  0
DICTIONARYVAR
  5
C90E73C08D47D63F
102
{ACAD_REACTORS
330
C90E73C08D47CD5A
102
}
330
C90E73C08D47CD5A
100
DictionaryVariables
280
     0
  1
0
  0
ACAD_PROXY_OBJECT
  5
C90E73C08D47C6D1
102
{ACAD_REACTORS
330
C90E73C08D47C6D0
102
}
330
C90E73C08D47C6D0
100
AcDbProxyObject
 90
      499
 91
      543
 71
    25
 97
       77
 70
     0
161
                86
310
90100057356C1D82421078
330
C90E73C08D47C637
330
C90E73C08D47C706
330
0
330
C90E73C08D47C71A
330
C90E73C08D47C641
330
C90E73C08D47C63B
330
0
 94
        0
  0
DICTIONARY
  5
C90E73C08D47C6DD
102
{ACAD_REACTORS
330
C90E73C08D47C6D0
102
}
330
C90E73C08D47C6D0
100
AcDbDictionary
281
     1
  3
ANSI
350
C90E73C08D47C6DE
  0
XRECORD
  5
C90E73C08D47CD41
102
{ACAD_REACTORS
330
C90E73C08D47C6D0
102
}
330
C90E73C08D47C6D0
100
AcDbXrecord
280
     1
 90
-1023410169
  0
ACAD_PROXY_OBJECT
  5
C90E73C08D47C680
330
0
100
AcDbProxyObject
 90
      499
 91
      505
 71
    25
 97
       77
 70
     0
161
               156
310
000101439050D35154D6535093D314D25691508C
330
C90E73C08D47C67D
 94
        0
  0
ACAD_PROXY_OBJECT
  5
C90E73C08D47C682
330
0
100
AcDbProxyObject
 90
      499
 91
      507
 71
    25
 97
       77
 70
     0
161
                88
310
000101411093D34C402B0000
330
C90E73C08D47C67D
330
0
330
0
 94
        0
  0
ACAD_PROXY_OBJECT
  5
C90E73C08D47C688
330
0
100
AcDbProxyObject
 90
      499
 91
      513
 71
    25
 97
       77
 70
     0
161
               382
310
0001014119185D1940508372E302E34322E32014119185D194050831302E322E302E3540501000041905394D24CCC658
330
C90E73C08D47C67D
330
C90E73C08D47C689
330
C90E73C08D47C68D
 94
        0
  0
ACAD_PROXY_OBJECT
  5
C90E73C08D47C689
330
0
100
AcDbProxyObject
 90
      499
 91
      514
 71
    25
 97
       77
 70
     0
161
                48
310
000190140A00CE
330
C90E73C08D47C67D
330
C90E73C08D47C68A
 94
        0
  0
ACAD_PROXY_OBJECT
  5
C90E73C08D47C68A
330
0
100
AcDbProxyObject
 90
      499
 91
      515
 71
    25
 97
       77
 70
     0
161
                48
310
0001AA000000CC
330
C90E73C08D47C67D
330
C90E73C08D47C636
330
C90E73C08D47C68B
330
0
 94
        0
  0
ACAD_PROXY_OBJECT
  5
C90E73C08D47C68B
330
0
100
AcDbProxyObject
 90
      499
 91
      516
 71
    25
 97
       77
 70
     0
161
                28
310
0001AAAC
330
C90E73C08D47C67D
 94
        0
  0
ACAD_PROXY_OBJECT
  5
C90E73C08D47C68E
330
0
100
AcDbProxyObject
 90
      499
 91
      505
 71
    25
 97
       77
 70
     0
161
               108
310
000101421053521310D05310D01C
330
C90E73C08D47C67D
 94
        0
  0
ACAD_PROXY_OBJECT
  5
C90E73C08D47C68F
330
0
100
AcDbProxyObject
 90
      499
 91
      505
 71
    25
 97
       77
 70
     0
161
               124
310
00010142905354915554D1511253501C
330
C90E73C08D47C67D
 94
        0
  0
ACAD_PROXY_OBJECT
  5
C90E73C08D47C690
330
0
100
AcDbProxyObject
 90
      499
 91
      505
 71
    25
 97
       77
 70
     0
161
               132
310
00010143105354D150D51253D39112536C
330
C90E73C08D47C67D
 94
        0
  0
ACAD_PROXY_OBJECT
  5
C90E73C08D47C691
330
0
100
AcDbProxyObject
 90
      499
 91
      505
 71
    25
 97
       77
 70
     0
161
               124
310
00010142905355941093D4911154901C
330
C90E73C08D47C67D
 94
        0
  0
ACAD_PROXY_OBJECT
  5
C90E73C08D47C692
330
0
100
AcDbProxyObject
 90
      499
 91
      505
 71
    25
 97
       77
 70
     0
161
               116
310
0001014290535115D1D0D3D313D4AC
330
C90E73C08D47C67D
 94
        0
  0
ACAD_PROXY_OBJECT
  5
C90E73C08D47C693
330
0
100
AcDbProxyObject
 90
      499
 91
      505
 71
    25
 97
       77
 70
     0
161
               148
310
00010143505355925155D49151949154D2101C
330
C90E73C08D47C67D
 94
        0
  0
ACAD_PROXY_OBJECT
  5
C90E73C08D47C694
330
0
100
AcDbProxyObject
 90
      499
 91
      505
 71
    25
 97
       77
 70
     0
161
               172
310
00010144105350539393D51154149154D1549591501C
330
C90E73C08D47C67D
 94
        0
  0
ACAD_PROXY_OBJECT
  5
C90E73C08D47C696
330
0
100
AcDbProxyObject
 90
      499
 91
      505
 71
    25
 97
       77
 70
     0
161
               172
310
00010144105350555513D11253505494905391D1501C
330
C90E73C08D47C67D
 94
        0
  0
ACAD_PROXY_OBJECT
  5
C90E73C08D47C697
330
0
100
AcDbProxyObject
 90
      499
 91
      505
 71
    25
 97
       77
 70
     0
161
               124
310
00010142D0535156151491519112536C
330
C90E73C08D47C67D
 94
        0
  0
ACAD_PROXY_OBJECT
  5
C90E73C08D47C698
330
0
100
AcDbProxyObject
 90
      499
 91
      505
 71
    25
 97
       77
 70
     0
161
               132
310
00010142D05355105410539393D511501C
330
C90E73C08D47C67D
 94
        0
  0
ACAD_PROXY_OBJECT
  5
C90E73C08D47C699
330
0
100
AcDbProxyObject
 90
      499
 91
      505
 71
    25
 97
       77
 70
     0
161
               108
310
00010142105350555513D0D3101C
330
C90E73C08D47C67D
 94
        0
  0
ACAD_PROXY_OBJECT
  5
C90E73C08D47C69A
330
0
100
AcDbProxyObject
 90
      499
 91
      505
 71
    25
 97
       77
 70
     0
161
               108
310
00010142105350D311915055105C
330
C90E73C08D47C67D
 94
        0
  0
ACAD_PROXY_OBJECT
  5
C90E73C08D47C69B
330
0
100
AcDbProxyObject
 90
      499
 91
      505
 71
    25
 97
       77
 70
     0
161
               108
310
00010142105350D315925155D3FC
330
C90E73C08D47C67D
 94
        0
  0
ACAD_PROXY_OBJECT
  5
C90E73C08D47C69C
330
0
100
AcDbProxyObject
 90
      499
 91
      505
 71
    25
 97
       77
 70
     0
161
               148
310
0001014350535212511156915493D11253501C
330
C90E73C08D47C67D
 94
        0
  0
ACAD_PROXY_OBJECT
  5
C90E73C08D47C69D
330
0
100
AcDbProxyObject
 90
      499
 91
      505
 71
    25
 97
       77
 70
     0
161
               124
310
00010142905352105510D21254D3D01C
330
C90E73C08D47C67D
 94
        0
  0
ACAD_PROXY_OBJECT
  5
C90E73C08D47C69E
330
0
100
AcDbProxyObject
 90
      499
 91
      505
 71
    25
 97
       77
 70
     0
161
               148
310
00010143905354D25391D3115210551310566C
330
C90E73C08D47C67D
 94
        0
  0
ACAD_PROXY_OBJECT
  5
C90E73C08D47C69F
330
0
100
AcDbProxyObject
 90
      499
 91
      505
 71
    25
 97
       77
 70
     0
161
               124
310
00010142D0535115D1D193111254D42C
330
C90E73C08D47C67D
 94
        0
  0
ACAD_PROXY_OBJECT
  5
C90E73C08D47C6A0
330
0
100
AcDbProxyObject
 90
      499
 91
      505
 71
    25
 97
       77
 70
     0
161
               100
310
00010142105350555513D213AC
330
C90E73C08D47C67D
 94
        0
  0
ACAD_PROXY_OBJECT
  5
C90E73C08D47C6A1
330
0
100
AcDbProxyObject
 90
      499
 91
      505
 71
    25
 97
       77
 70
     0
161
               116
310
000101425053521390D3D55395101C
330
C90E73C08D47C67D
 94
        0
  0
ACAD_PROXY_OBJECT
  5
C90E73C08D47C6A2
330
0
100
AcDbProxyObject
 90
      499
 91
      505
 71
    25
 97
       77
 70
     0
161
               108
310
0001014210535213941493D2901C
330
C90E73C08D47C67D
 94
        0
  0
ACAD_PROXY_OBJECT
  5
C90E73C08D47C6A3
330
0
100
AcDbProxyObject
 90
      499
 91
      505
 71
    25
 97
       77
 70
     0
161
               108
310
000101421053521395165411507C
330
C90E73C08D47C67D
 94
        0
  0
ACAD_PROXY_OBJECT
  5
C90E73C08D47C6A4
330
0
100
AcDbProxyObject
 90
      499
 91
      505
 71
    25
 97
       77
 70
     0
161
               108
310
000101421053521395925155D0FC
330
C90E73C08D47C67D
 94
        0
  0
ACAD_PROXY_OBJECT
  5
C90E73C08D47C6A5
330
0
100
AcDbProxyObject
 90
      499
 91
      505
 71
    25
 97
       77
 70
     0
161
               140
310
00010143505354D150D51253D390D3D4166C
330
C90E73C08D47C67D
 94
        0
  0
ACAD_PROXY_OBJECT
  5
C90E73C08D47C6A6
330
0
100
AcDbProxyObject
 90
      499
 91
      505
 71
    25
 97
       77
 70
     0
161
               108
310
00010142105350D3141493D2903C
330
C90E73C08D47C67D
 94
        0
  0
ACAD_PROXY_OBJECT
  5
C90E73C08D47C6A7
330
0
100
AcDbProxyObject
 90
      499
 91
      517
 71
    25
 97
       77
 70
     0
161
               212
310
00010143905350555513D2105510D21493D500000000000002E40C
330
C90E73C08D47C67D
 94
        0
  0
ACAD_PROXY_OBJECT
  5
C90E73C08D47C6A8
330
0
100
AcDbProxyObject
 90
      499
 91
      505
 71
    25
 97
       77
 70
     0
161
               156
310
00010143905350555513D2105510D2111155101C
330
C90E73C08D47C67D
 94
        0
  0
ACAD_PROXY_OBJECT
  5
C90E73C08D47C6B8
330
0
100
AcDbProxyObject
 90
      499
 91
      528
 71
    25
 97
       77
 70
     0
161
               714
310
0001000000009AA6A9AA4051E546875204175672032352031393A31373A3236203230303520285554432901420DCB8C0B8D0C8B8C80518547565205365702031322031353A34363A3434203230303601420C4C0B8C8B8C0B8D4C
330
C90E73C08D47C67D
330
C90E73C08D47C6B9
330
C90E73C08D47C6BA
330
C90E73C08D47C6BC
330
0
 94
        0
  0
ACAD_PROXY_OBJECT
  5
C90E73C08D47C6B9
330
0
100
AcDbProxyObject
 90
      499
 91
      529
 71
    25
 97
       77
 70
     0
161
                70
310
0001AAA80820000000
330
C90E73C08D47C67D
330
C90E73C08D47C6B9
330
C90E73C08D47C6B9
 94
        0
  0
ACAD_PROXY_OBJECT
  5
C90E73C08D47C6BA
330
0
100
AcDbProxyObject
 90
      499
 91
      530
 71
    25
 97
       77
 70
     0
161
                48
310
0001000000001A
330
C90E73C08D47C67D
330
0
330
C90E73C08D47C6BB
330
0
330
0
 94
        0
  0
ACAD_PROXY_OBJECT
  5
C90E73C08D47C6BB
330
0
100
AcDbProxyObject
 90
      499
 91
      531
 71
    25
 97
       77
 70
     0
161
                40
310
000100AAAA00
330
C90E73C08D47C67D
330
0
 94
        0
  0
ACAD_PROXY_OBJECT
  5
C90E73C08D47C6C1
330
0
100
AcDbProxyObject
 90
      499
 91
      535
 71
    25
 97
       77
 70
     0
161
               180
310
00010143105050D3D35411119390535140504434F4D50C
330
C90E73C08D47C67D
 94
        0
  0
ACAD_PROXY_OBJECT
  5
C90E73C08D47C6C2
330
0
100
AcDbProxyObject
 90
      499
 91
      535
 71
    25
 97
       77
 70
     0
161
               212
310
0001014390505193D311115491119390535140506466F6C646572C
330
C90E73C08D47C67D
 94
        0
  0
ACAD_PROXY_OBJECT
  5
C90E73C08D47C6C3
330
0
100
AcDbProxyObject
 90
      499
 91
      535
 71
    25
 97
       77
 70
     0
161
               180
310
00010143105050539393D111939053514050428415629C
330
C90E73C08D47C67D
 94
        0
  0
ACAD_PROXY_OBJECT
  5
C90E73C08D47C6C4
330
0
100
AcDbProxyObject
 90
      499
 91
      535
 71
    25
 97
       77
 70
     0
161
               420
310
00010143905050D3D35415925155D31254D500520546F700A46726F6E740A52696768740A4C6566740A426F74746F6D0A41757831C
330
C90E73C08D47C67D
 94
        0
  0
ACAD_PROXY_OBJECT
  5
C90E73C08D47C6C9
330
0
100
AcDbProxyObject
 90
      499
 91
      537
 71
    25
 97
       77
 70
     0
161
                32
310
0001000000
330
C90E73C08D47C67D
340
C90E73C08D47C6C6
330
C90E73C08D47C6CB
330
C90E73C08D47C6C6
 94
        0
  0
ACAD_PROXY_OBJECT
  5
C90E73C08D47C6CA
330
0
100
AcDbProxyObject
 90
      499
 91
      538
 71
    25
 97
       77
 70
     0
161
                18
310
00018C
330
C90E73C08D47C67D
 94
        0
  0
ACAD_PROXY_OBJECT
  5
C90E73C08D47C6CB
330
0
100
AcDbProxyObject
 90
      499
 91
      539
 71
    25
 97
       77
 70
     0
161
               130
310
000101414D8C4C0C0C105005540155000C
330
C90E73C08D47C67D
330
C90E73C08D47C6C9
330
C90E73C08D47C6CA
 94
        0
  0
ACAD_PROXY_OBJECT
  5
C90E73C08D47C6CC
330
0
100
AcDbProxyObject
 90
      499
 91
      540
 71
    25
 97
       77
 70
     0
161
               178
310
000100AAAAAA8CCCCCDE0ECA0C4BCD0814D8D85B194A4C
330
C90E73C08D47C67D
330
C90E73C08D47C6CB
 94
        0
  0
ACAD_PROXY_OBJECT
  5
C90E73C08D47C6CD
330
0
100
AcDbProxyObject
 90
      499
 91
      541
 71
    25
 97
       77
 70
     0
161
               108
310
000190140A000000000000AAAAAC
330
C90E73C08D47C67D
330
C90E73C08D47C6CE
330
C90E73C08D47C6CE
330
C90E73C08D47C6CE
330
C90E73C08D47C6CE
330
C90E73C08D47C6CE
330
0
 94
        0
  0
ACAD_PROXY_OBJECT
  5
C90E73C08D47C6CE
330
0
100
AcDbProxyObject
 90
      499
 91
      542
 71
    25
 97
       77
 70
     0
161
                51
310
00010000AAAA8C
330
C90E73C08D47C67D
330
C90E73C08D47C6CD
330
C90E73C08D47C6CB
 94
        0
  0
ACAD_PROXY_OBJECT
  5
C90E73C08D47C6DC
330
0
100
AcDbProxyObject
 90
      499
 91
      535
 71
    25
 97
       77
 70
     0
161
               148
310
00010142105350D55494D51100504414E5349C
330
C90E73C08D47C67D
 94
        0
  0
DICTIONARY
  5
C90E73C08D47C6B3
102
{ACAD_REACTORS
330
C90E73C08D47C6B2
102
}
330
C90E73C08D47C6B2
100
AcDbDictionary
281
     1
  3
DWGSETTINGS
350
C90E73C08D47C6B4
  3
FEM
350
C90E73C08D47D425
  3
Shaft
350
C90E73C08D47D01F
  3
TRANSSETTINGS
350
C90E73C08D47C6B5
  0
ACAD_PROXY_OBJECT
  5
C90E73C08D47C6DF
102
{ACAD_REACTORS
330
C90E73C08D47C6B2
102
}
330
C90E73C08D47C6B2
100
AcDbProxyObject
 90
      499
 91
      550
 71
    25
 97
       77
 70
     0
161
             17992
310
41903491013041105357CC201C00030C011E442404C504414D5F3180E0000C300479109013241105357CCA01400030C011E442404CD04414D5F338060000C30043E9013441105357CD200C00030C010FA404D504414D5F358030000C30043E9013641105357CDA00800030C011EA404DD04414D5F378040000C30043E90138
310
41105357CE200400030C010FA404E504414D5F398FD0000C300904902324141505357CC4C201C00030C011EA408D10505414D5F31318030000C30043E902495041505357CC4CA01C00030C011E40A408C13905414D5F304E8070000C30047A902314E41505357CC53A03800030C011EA408C93905414D5F324E8050000C300
310
47A902334E41505357CCD3A01800030C010FA408D13905414D5F344E8030000C30043E902354E41505357CD53A00C00030C010FA408D93905414D5F364E8020000C30047A902374E41505357CDD3A01000030C010FA408E13905414D5F384E8010000C30043E902394E41505357CE53A3F400030C0241240CC9053906414D5
310
F31304E8070000C30047A90334414E41905357CC4C53A00C00030C010FA40D25413906414D5F31324E8070000C300479029044B4C494E41505357D0D3200400030C010F4264112539193D08414D5F50415245468040000C30043D0B9055241484D3541905357D093D4A01C00030C011E4264115925155D08414D5F56494557
310
538010000C30043D0B906424548494E4441905357D25395A3F400030C02436415514905253105414D5F54528030000C30043D0990348494441905357D21251201C00030C010F42640D59254D06414D5F5649538070000C3004790990650415244494D42505357D41054911253600C00030C010F42641949151911253509414
310
D5F52454644494D8040000C30043D099534110921395901398000000C0003FFFFFFFE415092139594D06424548494E448000000C0003FFFFFFFE411093D48C9055241484D358010000C30043E411093D48CD055241484D358020000C30047A411093D48D5055241484D358000000C0003FFFFFFFE4110D0530C90134800000
310
0C0003FFFFFFFE4110D0530CD01348020000C30047A4110D0530D501348070000C30047A4110D0530DD013481E0000C3004F24110D15393901378000000C0003FFFFFFFE4110D15395D01378000000C0003FFFFFFFE4110D312539044B4C494E8000000C0003FFFFFFFE4110D3D38C501308000000C0003FFFFFFFD034110D
310
3D38C901318000000C0003FFFFFFFD034110D3D38CD01328000000C0003FFFFFFFD034110D3D38D101328000000C0003FFFFFFFD034111115510501348000000C0003FFFFFFFE4111125051D01358000000C0003FFFFFFFE4111125312501358000000C0003FFFFFFFE411112535410650415244494D8000000C0003FFFFFF
310
FE411112535490652454644494D8000000C0003FFFFFFFE4111915353901388000000C0003FFFFFFFE415191535413901388030000C3003FFFFFFFE4151915354D410234418000000C0003FFFFFFFE4151915354D510234418030000C30043E415191535593901328000000C0003FFFFFFFE415191535595101328030000C3
310
0043E4112105510D01388000000C0003FFFFFFFD014112125113901338000000C0003FFFFFFFD034112125115D01338000000C0003FFFFFFFD034112131253901348000000C0003FFFFFFFD01411213D0D3901378000000C0003FFFFFFFE411213D0D5D01378000000C0003FFFFFFFE4112539193D04494E464F8000000C00
310
03FFFFFFFE4113115051101358000000C0003FFFFFFFE419397D0921395902394E8000000C0003FFFFFFFE419397D0D3D38C502304E8000000C0003FFFFFFFD03419397D0D3D38C902314E8000000C0003FFFFFFFD03419397D0D3D38CD02324E8000000C0003FFFFFFFD03419397D0D3D38D102324E8000000C0003FFFFFF
310
FD03419397D0D15393902374E8000000C0003FFFFFFFE419397D0D15395D02374E8000000C0003FFFFFFFE419397D1125312502354E8000000C0003FFFFFFFE419397D2105510D02384E8000000C0003FFFFFFFD01419397D2125113902334E8000000C0003FFFFFFFD03419397D2125115D02334E8000000C0003FFFFFFFD
310
03419397D3115051102354E8000000C0003FFFFFFFE419397D391D25410349504E8000000C0003FFFFFFFE419397D412105390334414E8000000C0003FFFFFFFE419397D510D3D3902304E8000000C0003FFFFFFFD03419397D5121312502344E8000000C0003FFFFFFFD01419397D5131153902304E8000000C0003FFFFFF
310
FD03419397D594131250332414E8000000C0003FFFFFFFE411391D25410249508000000C0003FFFFFFFE411410530C9055241484D358010000C30043E411410530CD055241484D358020000C30047A411410530D5055241484D358000000C0003FFFFFFFE411412105390234418000000C0003FFFFFFFE411413D4D3901358
310
000000C0003FFFFFFFE411490D1D3901378000000C0003FFFFFFFE411490D1D5D01378000000C0003FFFFFFFE4114D09492D01348070000C300479014114D150D5101348000000C0003FFFFFFFD014114D6508CD01358020000C30047A411354D653501358020000C30047A411510D3D3901308000000C0003FFFFFFFD0341
310
15121312501348000000C0003FFFFFFFD01411512550C9055241484D358010000C30043E411512550CD055241484D358020000C30047A411512550D5055241484D358000000C0003FFFFFFFE4115131153901308000000C0003FFFFFFFD03415514905253105545241494C8000000C0003FFFFFFFE41151493125013480000
310
00C0003FFFFFFFD01411516150C501368030000C30043E411516150C901368030000C30043E411516150CD01368000000C0003FFFFFFFE411516150D501368070000C30047A411516150DD013681E0000C3004F24115925155D04564945578000000C0003FFFFFFFE41159151121034849448000000C0003FFFFFFFD024115
310
9151159035649538000000C0003FFFFFFFD02411594131250232418000000C0003FFFFFFFE4116925690501348000000C0003FFFFFFFD01AAA3F400030C01013F90A4391E41D1E4190F4151E4110F40D0F4091E4050F4793C7F6CC
340
C90E73C08D47C62C
340
C90E73C08D47C62C
340
C90E73C08D47C62C
340
C90E73C08D47C657
340
C90E73C08D47C62C
340
C90E73C08D47C62C
340
C90E73C08D47C62C
340
C90E73C08D47C651
340
C90E73C08D47C62C
340
C90E73C08D47C62C
340
C90E73C08D47C651
340
C90E73C08D47C695
340
C90E73C08D47C62C
340
C90E73C08D47C62C
340
C90E73C08D47C62C
340
C90E73C08D47C62C
340
C90E73C08D47C657
340
C90E73C08D47C62C
340
C90E73C08D47C62C
340
C90E73C08D47C62C
340
C90E73C08D47C651
340
C90E73C08D47C62C
340
C90E73C08D47C62C
340
C90E73C08D47C651
340
C90E73C08D47C695
340
C90E73C08D47C62C
340
C90E73C08D47C6E3
340
C90E73C08D47C62C
340
C90E73C08D47C62C
340
C90E73C08D47C62C
340
C90E73C08D47C62C
340
C90E73C08D47C62C
340
C90E73C08D47C657
340
C90E73C08D47C62C
340
C90E73C08D47C62C
340
C90E73C08D47C62C
340
C90E73C08D47C62B
340
C90E73C08D47C62B
340
C90E73C08D47C62B
340
C90E73C08D47C62B
340
C90E73C08D47C62B
340
C90E73C08D47C62B
340
C90E73C08D47C62B
340
C90E73C08D47C62B
340
C90E73C08D47C62B
340
C90E73C08D47C6E9
340
C90E73C08D47C62B
340
C90E73C08D47C62B
340
C90E73C08D47C62B
340
C90E73C08D47C62B
340
C90E73C08D47C62B
340
C90E73C08D47C62B
340
C90E73C08D47C62B
340
C90E73C08D47C62B
340
C90E73C08D47C62B
340
C90E73C08D47C62B
340
C90E73C08D47C62B
340
C90E73C08D47C62B
340
C90E73C08D47C62B
340
C90E73C08D47C62C
340
C90E73C08D47C62B
340
C90E73C08D47C62B
340
C90E73C08D47C62B
340
C90E73C08D47C62B
340
C90E73C08D47C6EA
340
C90E73C08D47C62B
340
C90E73C08D47C62B
340
C90E73C08D47C6E9
340
C90E73C08D47C62B
340
C90E73C08D47C62B
340
C90E73C08D47C62B
340
C90E73C08D47C62B
340
C90E73C08D47C62B
340
C90E73C08D47C62B
340
C90E73C08D47C62B
340
C90E73C08D47C62B
340
C90E73C08D47C6E9
340
C90E73C08D47C62B
340
C90E73C08D47C62B
340
C90E73C08D47C62B
340
C90E73C08D47C6EA
340
C90E73C08D47C62B
340
C90E73C08D47C62B
340
C90E73C08D47C62B
340
C90E73C08D47C62B
340
C90E73C08D47C62B
340
C90E73C08D47C6EA
340
C90E73C08D47C62B
340
C90E73C08D47C695
340
C90E73C08D47C62B
340
C90E73C08D47C62B
340
C90E73C08D47C62B
340
C90E73C08D47C62B
340
C90E73C08D47C62B
340
C90E73C08D47C62B
340
C90E73C08D47C6E9
340
C90E73C08D47C62B
340
C90E73C08D47C62B
340
C90E73C08D47C62B
340
C90E73C08D47C62B
340
C90E73C08D47C62B
340
C90E73C08D47C62B
340
C90E73C08D47C6EA
340
C90E73C08D47C62B
340
C90E73C08D47C62B
340
C90E73C08D47C62B
340
C90E73C08D47C62B
340
C90E73C08D47C62B
340
C90E73C08D47C62B
340
C90E73C08D47C62B
340
C90E73C08D47C62B
340
C90E73C08D47C62B
340
C90E73C08D47C62B
340
C90E73C08D47C62B
340
C90E73C08D47C62B
340
C90E73C08D47C62B
340
C90E73C08D47C62B
340
C90E73C08D47C695
340
C90E73C08D47C6EB
 94
        0
  0
ACAD_PROXY_OBJECT
  5
C90E73C08D47C714
102
{ACAD_REACTORS
330
C90E73C08D47C70F
102
}
330
C90E73C08D47C70F
100
AcDbProxyObject
 90
      499
 91
      567
 71
    25
 97
       77
 70
     0
161
               253
310
43D1444494D454E53494F4E2C414D44545F2A5F44494D404A9012A404A9012AC
 94
        0
  0
ACAD_PROXY_OBJECT
  5
C90E73C08D47C713
102
{ACAD_REACTORS
330
C90E73C08D47C70F
102
}
330
C90E73C08D47C70F
100
AcDbProxyObject
 90
      499
 91
      567
 71
    25
 97
       77
 70
     0
161
               181
310
43D012A42D05357D191504B505357CA9012A404A9012AC
 94
        0
  0
ACAD_PROXY_OBJECT
  5
C90E73C08D47C710
102
{ACAD_REACTORS
330
C90E73C08D47C70F
102
}
330
C90E73C08D47C70F
100
AcDbProxyObject
 90
      499
 91
      567
 71
    25
 97
       77
 70
     0
161
               133
310
43D054841544348404A9012A404A9012AC
 94
        0
  0
ACAD_PROXY_OBJECT
  5
C90E73C08D47C711
102
{ACAD_REACTORS
330
C90E73C08D47C70F
102
}
330
C90E73C08D47C70F
100
AcDbProxyObject
 90
      499
 91
      567
 71
    25
 97
       77
 70
     0
161
               549
310
43D044C494E4549CE0B0E138B0A8B4E0B0A8B4E138B105357CE0B105357CE138B0A8B505357CE0B0A8B505357CE139012A404A910494E534552542C535444504152543244C
 94
        0
  0
ACAD_PROXY_OBJECT
  5
C90E73C08D47C715
102
{ACAD_REACTORS
330
C90E73C08D47C70F
102
}
330
C90E73C08D47C70F
100
AcDbProxyObject
 90
      499
 91
      567
 71
    25
 97
       77
 70
     0
161
               181
310
43D0341524341105357CD5012A404C906494E534552544
 94
        0
  0
ACAD_PROXY_OBJECT
  5
C90E73C08D47C712
102
{ACAD_REACTORS
330
C90E73C08D47C70F
102
}
330
C90E73C08D47C70F
100
AcDbProxyObject
 90
      499
 91
      567
 71
    25
 97
       77
 70
     0
161
              1053
310
43D7841434D46434652414D452C41434D444154554D5441524745542C41434D444154554D49442C41434D57454C4453594D2C41434D5355524653594D2C41434D4645415449442C41434D504152545245462C41434D42414C4C4F4F4E2C414D44544544474553594D2C414D47534352455743414C435441424C45404A9012A
310
404A9012AC
 94
        0
  0
ACAD_PROXY_OBJECT
  5
C90E73C08D47D241
102
{ACAD_REACTORS
330
C90E73C08D47CEB9
102
}
330
C90E73C08D47CEB9
100
AcDbProxyObject
 90
      499
 91
      574
 71
    25
 97
       77
 70
     0
161
               476
310
404810C57656174686572205365616C494C99190CCC4C4C584B4C1E184D8DCB4D0DD88E4B4E0D4DD04B4D0D8C8E0E11104C50CC5151602800010104C
 94
        0
  0
ACAD_PROXY_OBJECT
  5
C90E73C08D47D594
102
{ACAD_REACTORS
330
C90E73C08D47CEB9
102
}
330
C90E73C08D47CEB9
100
AcDbProxyObject
 90
      499
 91
      574
 71
    25
 97
       77
 70
     0
161
               412
310
4048103726576498E4D8E4D594C98598B4C1E0C4D0DCDCB4D1959994B504E4D918B4C504D8E50D0518C0D4D8C4CA02800010101C
 94
        0
  0
ACAD_PROXY_OBJECT
  5
C90E73C08D47D008
102
{ACAD_REACTORS
330
C90E73C08D47CEB9
102
}
330
C90E73C08D47CEB9
100
AcDbProxyObject
 90
      499
 91
      574
 71
    25
 97
       77
 70
     0
161
               572
310
40481175265696E666F7263656420427974796C2053706163657249984D59598E190D4D4B4C1E0D58584D0B4D184CCD0B508CD18CCB514E4D910C504C8C10D08E0DA02800010104C
 94
        0
  0
ACAD_PROXY_OBJECT
  5
C90E73C08D47D216
102
{ACAD_REACTORS
330
C90E73C08D47CEB9
102
}
330
C90E73C08D47CEB9
100
AcDbProxyObject
 90
      499
 91
      574
 71
    25
 97
       77
 70
     0
161
               596
310
404811A53696C69636F6E20536D616C6C20566572746963616C20546F70499958CCD94D0D58CD0B4C1E18990C194B4D18CD188B504CCC4C4B4E4E1050CD0E4DCCCD4D8D0DE02800010101C
 94
        0
  0
DICTIONARY
  5
C90E73C08D47D5CA
330
C90E73C08D47D5C9
100
AcDbDictionary
280
     1
281
     1
  3
BUMPTILE
360
C90E73C08D47D5CC
  3
DIFFUSETILE
360
C90E73C08D47D5CB
  3
OPACITYTILE
360
C90E73C08D47D5CF
  3
REFLECTIONTILE
360
C90E73C08D47D5CE
  3
REFRACTIONTILE
360
C90E73C08D47D5D0
  3
SPECULARTILE
360
C90E73C08D47D5CD
  0
DICTIONARY
  5
C90E73C08D47D5C2
330
C90E73C08D47D5C1
100
AcDbDictionary
280
     1
281
     1
  3
BUMPTILE
360
C90E73C08D47D5C4
  3
DIFFUSETILE
360
C90E73C08D47D5C3
  3
OPACITYTILE
360
C90E73C08D47D5C7
  3
REFLECTIONTILE
360
C90E73C08D47D5C6
  3
REFRACTIONTILE
360
C90E73C08D47D5C8
  3
SPECULARTILE
360
C90E73C08D47D5C5
  0
DICTIONARY
  5
C90E73C08D47D5D2
330
C90E73C08D47D5D1
100
AcDbDictionary
280
     1
281
     1
  3
BUMPTILE
360
C90E73C08D47D5D4
  3
DIFFUSETILE
360
C90E73C08D47D5D3
  3
OPACITYTILE
360
C90E73C08D47D5D7
  3
REFLECTIONTILE
360
C90E73C08D47D5D6
  3
REFRACTIONTILE
360
C90E73C08D47D5D8
  3
SPECULARTILE
360
C90E73C08D47D5D5
  0
DICTIONARY
  5
C90E73C08D47D64E
330
C90E73C08D47CD2B
100
AcDbDictionary
280
     1
281
     1
  3
ACAD_ROUNDTRIP_2008_TABLESTYLE_CELLSTYLEMAP
360
C90E73C08D47D64F
  0
ACAD_PROXY_OBJECT
  5
C90E73C08D47C6DE
102
{ACAD_REACTORS
330
C90E73C08D47C6DD
102
}
330
C90E73C08D47C6DD
100
AcDbProxyObject
 90
      499
 91
      549
 71
    25
 97
       77
 70
     0
161
              2431
310
608B81E85EB51B8BE3F8000000C00041105394D2501640600800030C0200800030C00B81E85EB51B8BE3F48821E8720B1B6A9BAB9332A32BC3A29BA3220480A1282C6DA8C868CA6E8C88120286A0B1B6ABB2B63234B733A9BA3220480A1082C6DA92C8A6E8C88120285A0B1B6A230BA3AB6A9BA3220480A1282C6DA849E9AA
310
6E8C8812028820B6B23A2232BA30B4B629BCB6A9BA3220480A2282DAC8E8A6CAC6E8D2DEDCA6F2DAA6E8C88120288A0B6B23A21B2B73A32B92634B732A9BA3220480A2282DAC8E8A8D0E4CAC2C898D2DCCAA6E8C88120285A0B6B23A2737BA32A9BA3220480A1682C682DACE98C2F2A6E8C88120285A0B1A0B6B3A234B6A9B
310
A3220480A2282C682DACE90DED8CA86D0C2E4E8A6E8C88120286A0B1A0B6B3AA34BA3632A9BA3220480A02812027FFF9FFFE
340
C90E73C08D47C6EC
360
C90E73C08D47C6ED
360
C90E73C08D47C6EE
360
C90E73C08D47C6EF
360
C90E73C08D47C6F0
360
C90E73C08D47C6F1
360
C90E73C08D47C6F2
360
C90E73C08D47C6F3
360
C90E73C08D47C6F4
360
C90E73C08D47C6F5
360
C90E73C08D47C6F6
360
C90E73C08D47C6F7
360
C90E73C08D47C6FF
360
C90E73C08D47C700
360
C90E73C08D47C70B
360
C90E73C08D47C70C
340
0
340
0
340
0
340
0
 94
        0
  0
ACAD_PROXY_OBJECT
  5
C90E73C08D47C6B4
102
{ACAD_REACTORS
330
C90E73C08D47C6B3
102
}
330
C90E73C08D47C6B3
100
AcDbProxyObject
 90
      499
 91
      525
 71
    25
 97
       77
 70
     0
161
              2436
310
4050B44574753455454494E4753A1286829C8E82A4A482B282A106660F8686AF86C608321A2A720A723A0A849A1ABE1C983E18999AA0C868A9C889282940000000000001C07E83A1A2A72224A0A9A0A8598171ABE1897183E18971AA0E868A9C8892A6A8940000000000001807E8321A2A72622A7250000000000000701FA0
310
C868A9C9E8C8C940000000000001C07E84A1A624A720A92920ACA0A851C1718181818181818182108698929C8AA8B2A082A0AB098929C8A84A22BA3AAA9A1A0A622A50A0E9882A6A89E849482A02608426A0A5A2AB24A2ABA7E8120CA0A68682988A0C00800010652455649534941501304154D0D0531150540CC4E8C50954
310
494D455354414D504A0405A7902AF21734141D5915494D253D3905414C4D4B8C0C1107B44574753455454494E4753454E447DC
 94
        0
  0
ACAD_PROXY_OBJECT
  5
C90E73C08D47D425
102
{ACAD_REACTORS
330
C90E73C08D47C6B3
102
}
330
C90E73C08D47C6B3
100
AcDbProxyObject
 90
      499
 91
      525
 71
    25
 97
       77
 70
     0
161
               411
310
4050346454D21092DCC6E486DECACC942842630BCA3B937BAB820A8320A6AFA322A0A20F688AE8EA68AA8A8929C8EA68A9C88FAC
 94
        0
  0
ACAD_PROXY_OBJECT
  5
C90E73C08D47D01F
102
{ACAD_REACTORS
330
C90E73C08D47C6B3
102
}
330
C90E73C08D47C6B3
100
AcDbProxyObject
 90
      499
 91
      525
 71
    25
 97
       77
 70
     0
161
               199
310
405055368616674220F688AE8EA68AA8A8929C8EA68A9C88FA
 94
        0
  0
ACAD_PROXY_OBJECT
  5
C90E73C08D47C6B5
102
{ACAD_REACTORS
330
C90E73C08D47C6B3
102
}
330
C90E73C08D47C6B3
100
AcDbProxyObject
 90
      499
 91
      525
 71
    25
 97
       77
 70
     0
161
               852
310
4050D5452414E5353455454494E4753A2488A482AE929C8EA8A4829CA69882A8929E9C0C00800050D4F524947494E414C4C595F4F4E0600400008529A7AAA921A2A620A723A0A81A2A72AA12AAA0A48AA68AA4AC8A0C0080001107B44574753455454494E4753454E447DC
 94
        0
  0
XRECORD
  5
C90E73C08D47D5CC
102
{ACAD_REACTORS
330
C90E73C08D47D5CA
102
}
330
C90E73C08D47D5CA
100
AcDbXrecord
280
     1
270
     1
271
     1
  0
XRECORD
  5
C90E73C08D47D5CB
102
{ACAD_REACTORS
330
C90E73C08D47D5CA
102
}
330
C90E73C08D47D5CA
100
AcDbXrecord
280
     1
270
     1
271
     1
  0
XRECORD
  5
C90E73C08D47D5CF
102
{ACAD_REACTORS
330
C90E73C08D47D5CA
102
}
330
C90E73C08D47D5CA
100
AcDbXrecord
280
     1
270
     1
271
     1
  0
XRECORD
  5
C90E73C08D47D5CE
102
{ACAD_REACTORS
330
C90E73C08D47D5CA
102
}
330
C90E73C08D47D5CA
100
AcDbXrecord
280
     1
270
     1
271
     1
  0
XRECORD
  5
C90E73C08D47D5D0
102
{ACAD_REACTORS
330
C90E73C08D47D5CA
102
}
330
C90E73C08D47D5CA
100
AcDbXrecord
280
     1
270
     1
271
     1
  0
XRECORD
  5
C90E73C08D47D5CD
102
{ACAD_REACTORS
330
C90E73C08D47D5CA
102
}
330
C90E73C08D47D5CA
100
AcDbXrecord
280
     1
270
     1
271
     1
  0
XRECORD
  5
C90E73C08D47D5C4
102
{ACAD_REACTORS
330
C90E73C08D47D5C2
102
}
330
C90E73C08D47D5C2
100
AcDbXrecord
280
     1
270
     1
271
     1
  0
XRECORD
  5
C90E73C08D47D5C3
102
{ACAD_REACTORS
330
C90E73C08D47D5C2
102
}
330
C90E73C08D47D5C2
100
AcDbXrecord
280
     1
270
     1
271
     1
  0
XRECORD
  5
C90E73C08D47D5C7
102
{ACAD_REACTORS
330
C90E73C08D47D5C2
102
}
330
C90E73C08D47D5C2
100
AcDbXrecord
280
     1
270
     1
271
     1
  0
XRECORD
  5
C90E73C08D47D5C6
102
{ACAD_REACTORS
330
C90E73C08D47D5C2
102
}
330
C90E73C08D47D5C2
100
AcDbXrecord
280
     1
270
     1
271
     1
  0
XRECORD
  5
C90E73C08D47D5C8
102
{ACAD_REACTORS
330
C90E73C08D47D5C2
102
}
330
C90E73C08D47D5C2
100
AcDbXrecord
280
     1
270
     1
271
     1
  0
XRECORD
  5
C90E73C08D47D5C5
102
{ACAD_REACTORS
330
C90E73C08D47D5C2
102
}
330
C90E73C08D47D5C2
100
AcDbXrecord
280
     1
270
     1
271
     1
  0
XRECORD
  5
C90E73C08D47D5D4
102
{ACAD_REACTORS
330
C90E73C08D47D5D2
102
}
330
C90E73C08D47D5D2
100
AcDbXrecord
280
     1
270
     1
271
     1
  0
XRECORD
  5
C90E73C08D47D5D3
102
{ACAD_REACTORS
330
C90E73C08D47D5D2
102
}
330
C90E73C08D47D5D2
100
AcDbXrecord
280
     1
270
     1
271
     1
  0
XRECORD
  5
C90E73C08D47D5D7
102
{ACAD_REACTORS
330
C90E73C08D47D5D2
102
}
330
C90E73C08D47D5D2
100
AcDbXrecord
280
     1
270
     1
271
     1
  0
XRECORD
  5
C90E73C08D47D5D6
102
{ACAD_REACTORS
330
C90E73C08D47D5D2
102
}
330
C90E73C08D47D5D2
100
AcDbXrecord
280
     1
270
     1
271
     1
  0
XRECORD
  5
C90E73C08D47D5D8
102
{ACAD_REACTORS
330
C90E73C08D47D5D2
102
}
330
C90E73C08D47D5D2
100
AcDbXrecord
280
     1
270
     1
271
     1
  0
XRECORD
  5
C90E73C08D47D5D5
102
{ACAD_REACTORS
330
C90E73C08D47D5D2
102
}
330
C90E73C08D47D5D2
100
AcDbXrecord
280
     1
270
     1
271
     1
  0
CELLSTYLEMAP
  5
C90E73C08D47D64F
102
{ACAD_REACTORS
330
C90E73C08D47D64E
102
}
330
C90E73C08D47D64E
100
AcDbCellStyleMap
 90
        3
300
CELLSTYLE
  1
TABLEFORMAT_BEGIN
 90
        5
170
     1
 91
        0
 92
    32768
 62
   257
 93
        1
300
CONTENTFORMAT
  1
CONTENTFORMAT_BEGIN
 90
        0
 91
        0
 92
        4
 93
        0
300

 40
0.0
140
1.0
 94
        5
 62
     0
340
C90E73C08D47C628
144
0.25
309
CONTENTFORMAT_END
171
     0
 94
        6
 95
        1
302
GRIDFORMAT
  1
GRIDFORMAT_BEGIN
 90
        0
 91
        1
 62
     0
 92
       -2
340
0
 93
        0
 40
0.045
309
GRIDFORMAT_END
 95
        2
302
GRIDFORMAT
  1
GRIDFORMAT_BEGIN
 90
        0
 91
        1
 62
     0
 92
       -2
340
0
 93
        0
 40
0.045
309
GRIDFORMAT_END
 95
        4
302
GRIDFORMAT
  1
GRIDFORMAT_BEGIN
 90
        0
 91
        1
 62
     0
 92
       -2
340
0
 93
        0
 40
0.045
309
GRIDFORMAT_END
 95
        8
302
GRIDFORMAT
  1
GRIDFORMAT_BEGIN
 90
        0
 91
        1
 62
     0
 92
       -2
340
0
 93
        0
 40
0.045
309
GRIDFORMAT_END
 95
       16
302
GRIDFORMAT
  1
GRIDFORMAT_BEGIN
 90
        0
 91
        1
 62
     0
 92
       -2
340
0
 93
        0
 40
0.045
309
GRIDFORMAT_END
 95
       32
302
GRIDFORMAT
  1
GRIDFORMAT_BEGIN
 90
        0
 91
        1
 62
     0
 92
       -2
340
0
 93
        0
 40
0.045
309
GRIDFORMAT_END
309
TABLEFORMAT_END
  1
CELLSTYLE_BEGIN
 90
        1
 91
        1
300
_TITLE
309
CELLSTYLE_END
300
CELLSTYLE
  1
TABLEFORMAT_BEGIN
 90
        5
170
     1
 91
        0
 92
        0
 62
   257
 93
        1
300
CONTENTFORMAT
  1
CONTENTFORMAT_BEGIN
 90
        0
 91
        0
 92
        4
 93
        0
300

 40
0.0
140
1.0
 94
        5
 62
     0
340
C90E73C08D47C628
144
0.18
309
CONTENTFORMAT_END
171
     0
 94
        6
 95
        1
302
GRIDFORMAT
  1
GRIDFORMAT_BEGIN
 90
        0
 91
        1
 62
     0
 92
       -2
340
0
 93
        0
 40
0.045
309
GRIDFORMAT_END
 95
        2
302
GRIDFORMAT
  1
GRIDFORMAT_BEGIN
 90
        0
 91
        1
 62
     0
 92
       -2
340
0
 93
        0
 40
0.045
309
GRIDFORMAT_END
 95
        4
302
GRIDFORMAT
  1
GRIDFORMAT_BEGIN
 90
        0
 91
        1
 62
     0
 92
       -2
340
0
 93
        0
 40
0.045
309
GRIDFORMAT_END
 95
        8
302
GRIDFORMAT
  1
GRIDFORMAT_BEGIN
 90
        0
 91
        1
 62
     0
 92
       -2
340
0
 93
        0
 40
0.045
309
GRIDFORMAT_END
 95
       16
302
GRIDFORMAT
  1
GRIDFORMAT_BEGIN
 90
        0
 91
        1
 62
     0
 92
       -2
340
0
 93
        0
 40
0.045
309
GRIDFORMAT_END
 95
       32
302
GRIDFORMAT
  1
GRIDFORMAT_BEGIN
 90
        0
 91
        1
 62
     0
 92
       -2
340
0
 93
        0
 40
0.045
309
GRIDFORMAT_END
309
TABLEFORMAT_END
  1
CELLSTYLE_BEGIN
 90
        2
 91
        1
300
_HEADER
309
CELLSTYLE_END
300
CELLSTYLE
  1
TABLEFORMAT_BEGIN
 90
        5
170
     1
 91
        0
 92
        0
 62
   257
 93
        1
300
CONTENTFORMAT
  1
CONTENTFORMAT_BEGIN
 90
        0
 91
        0
 92
        4
 93
        0
300

 40
0.0
140
1.0
 94
        2
 62
     0
340
C90E73C08D47C628
144
0.18
309
CONTENTFORMAT_END
171
     0
 94
        6
 95
        1
302
GRIDFORMAT
  1
GRIDFORMAT_BEGIN
 90
        0
 91
        1
 62
     0
 92
       -2
340
0
 93
        0
 40
0.045
309
GRIDFORMAT_END
 95
        2
302
GRIDFORMAT
  1
GRIDFORMAT_BEGIN
 90
        0
 91
        1
 62
     0
 92
       -2
340
0
 93
        0
 40
0.045
309
GRIDFORMAT_END
 95
        4
302
GRIDFORMAT
  1
GRIDFORMAT_BEGIN
 90
        0
 91
        1
 62
     0
 92
       -2
340
0
 93
        0
 40
0.045
309
GRIDFORMAT_END
 95
        8
302
GRIDFORMAT
  1
GRIDFORMAT_BEGIN
 90
        0
 91
        1
 62
     0
 92
       -2
340
0
 93
        0
 40
0.045
309
GRIDFORMAT_END
 95
       16
302
GRIDFORMAT
  1
GRIDFORMAT_BEGIN
 90
        0
 91
        1
 62
     0
 92
       -2
340
0
 93
        0
 40
0.045
309
GRIDFORMAT_END
 95
       32
302
GRIDFORMAT
  1
GRIDFORMAT_BEGIN
 90
        0
 91
        1
 62
     0
 92
       -2
340
0
 93
        0
 40
0.045
309
GRIDFORMAT_END
309
TABLEFORMAT_END
  1
CELLSTYLE_BEGIN
 90
        3
 91
        2
300
_DATA
309
CELLSTYLE_END
  0
ACAD_PROXY_OBJECT
  5
C90E73C08D47C6ED
330
C90E73C08D47C6DE
100
AcDbProxyObject
 90
      499
 91
      551
 71
    25
 97
       77
 70
     0
161
                96
310
60820E80A0280A0280A0280800
 94
        0
  0
ACAD_PROXY_OBJECT
  5
C90E73C08D47C6EE
330
C90E73C08D47C6DE
100
AcDbProxyObject
 90
      499
 91
      552
 71
    25
 97
       77
 70
     0
161
               332
310
6090E405014050140501405014050140501405014250140501405014050140501200000000000000040C
340
C90E73C08D47C6F8
 94
        0
  0
ACAD_PROXY_OBJECT
  5
C90E73C08D47C6EF
330
C90E73C08D47C6DE
100
AcDbProxyObject
 90
      499
 91
      553
 71
    25
 97
       77
 70
     0
161
               403
310
608C199999999999E99F91F405014050140501405014050140501405014050140501405014050140501405014050140501404C
340
0
 94
        0
  0
ACAD_PROXY_OBJECT
  5
C90E73C08D47C6F0
330
C90E73C08D47C6DE
100
AcDbProxyObject
 90
      499
 91
      554
 71
    25
 97
       77
 70
     0
161
                10
310
608C
 94
        0
  0
ACAD_PROXY_OBJECT
  5
C90E73C08D47C6F1
330
C90E73C08D47C6DE
100
AcDbProxyObject
 90
      499
 91
      555
 71
    25
 97
       77
 70
     0
161
               257
310
60A290EA22A7D90F49F9353333333333727F44D4CCCCCCCCCDC9FC01000061804C
340
C90E73C08D47C6F9
340
C90E73C08D47C6FA
 94
        0
  0
ACAD_PROXY_OBJECT
  5
C90E73C08D47C6F2
330
C90E73C08D47C6DE
100
AcDbProxyObject
 90
      499
 91
      556
 71
    25
 97
       77
 70
     0
161
             13585
310
6090E41125511535014112551153501405014069011309A4F2590CB64FD3347454E545241434F2C454E552C302C4954454D2C47454E54524154582C25732C2847454E4D53472067656E647767203232322940690120281A8AA2CA0281A8AA2CA028120280A03202261349E4B2196C9FA648E8A9CA8A482869E588A9CAA5860
310
58A2A8B2588E8A9CA8A482A8B0584AE658508E8A9C9AA68E40CECADCC8EECE406464665280D202405044E414D45405044E414D454051C40640A8B95C2E97CBE502404CD1D15395149050D3CB1153954B0C0B139053514B11D15395149055160B095CCB0A11D1539354D1C819D95B991DD9C80C8C8D8A50192C3D4946284953
310
424C414E4B28504152543A4E414D45292C424C4F434B3A4E414D452C504152543A4E414D452940480A0A888AA686A480A16888AA686A492A0A8929E9C80A3A80C81D10782C06030180C809D23A2A72A2920A1A79622A72A9618162222A9A1A924A82A24A7A71623A2A72A2920AA2C1612B9961423A2A726A9A39033B2B7323
310
BB39019189B94A024809014214D51053911054911014214D510539110549110147501904A383BFDFEFF5FBFCFD3747454E545241434F2C454E552C302C5354414E444152442C47454E54524154582C25732C2847454E4D53472067656E64776720323138294049012028426A0AA22A924A0A62028426A0AA22A924A0A62028
310
EA0320B41396D838E9017D9FA6E8E8A9CA8A482869E588A9CAA5860589A82A88AA4928298588E8A9CA8A482A8B0584AE658508E8A9C9AA68E40CECADCC8EECE406464625280D202405044E4F5445405044E4F54454051D40641A8B95C2E97CBE5F23F4CD1D15395149050D3CB1153954B0C0B1393D5114B11D153951490551
310
60B095CCB0A11D1539354D1C819D95B991DD9C80C8C8D4A501A40480A0CAC8A9C889EA480A0CAC8A9C889EA480A3A80C83D172B85D2F97CBE47E9AA3A2A72A2920A1A79622A72A9618162B22A72227A91623A2A72A2920AA2C1612B9961423A2A726A9A39033B2B7323BB39019191A14A0348090141911154D0D48C9014351
310
1154D0D49254151253D3880C90147501908A20F0580C0603019013B47454E545241434F2C454E552C302C4445534352495054494F4E20322C47454E54524154582C25732C2847454E4D53472067656E6477672033362940490120284A9AA20A72220A922192028529AA20A72220A92210192028EA0321347077FBFDFEBF7F9
310
FA728E8A9CA8A482869E588A9CAA586058A6A8829C8882A4884064588E8A9CA8A482A8B0584AE658508E8A9C9AA68E40CECADCC8EECE4064646052809202405094D4154455249414C324050A4D4154455249414C20324051D40642A8272DB071D202FB3F4E11D15395149050D3CB1153954B0C0B1350551154925053080C8B
310
11D15395149055160B095CCB0A11D1539354D1C819D95B991DD9C80D0C0A501240480A089A82A6A680A089A82A6A680A3A80A0485A0681172B85D2F97CBE47E9923A2A72A2920A1A79622A72A96181626A0A9A99623A2A72A2920AA2C1612B9961423A2A726A9A39033B2B7323BB3901A1914A024809014154149250D15014
310
154149250D1501475014090C409022E570BA5F2F97C8FD3347454E545241434F2C454E552C302C50524943452C47454E54524154582C25732C2847454E4D53472067656E6477672034332940490120281A224A6A0285A6A2A0A9AAA922A6A2A72A2028EA028121A81A047DC2910F05877A1FA728E8A9CA8A482869E588A9CA
310
A5860589A8A82A6AAA48A9A8A9CA8588E8A9CA8A482A8B0584AE658508E8A9C9AA68E40CECADCC8EECE406868528092024050E441022E07A17AD46E338FE07800030C0001018ACD56AB55AADF63F2B355AAD56AB7D8FD073D3C4954454D3E405018ACD56AB55AADF63F2B355AAD56AB7D8FD073D3C4954454D3E40501890C7
310
E3F1783CEE3F2431F8FC5E0F3B8FD073D3C4954454D3E40501890C7E3F1783CEE3F2431F8FC5E0F3B8FD073D3C4954454D3E405029012B355AAD56AB7D8FCACD56AB55AADF63F41CF4F125511534F901418F4F1455164F9014062B355AAD56AB7D8FCACD56AB55AADF63F41CF4F125511534F9018260000001F0000003C138
310
CC1D130481F1073D3C4954454D3E40640400ACD56AB55AADF63F2B355AAD56AB7D8FE88000000000000020810060001860120881A068120480A032208521122080D21480D211480A1485214852050000000000003C2FC000000000000F0BF40600800030C0201C00030C003BDF4F8D976EA23F0EF7D3E365DBA88FCB81E85E
310
B51B8BE3FC80D069014090541D06901A5C0F42F5A8DC5F1FC0100006180401000061804008000618008098A0280C80CC
340
0
340
0
 94
        0
  0
ACAD_PROXY_OBJECT
  5
C90E73C08D47C6F3
330
C90E73C08D47C6DE
100
AcDbProxyObject
 90
      499
 91
      557
 71
    25
 97
       77
 70
     0
161
               994
310
6080B81E85EB51B8CE3F4BCF511155105253080F11115510525317D3105091530F971414D0D05311480F11115510525317D05094D4D0D053114F92341C9A9999999999B93F26A666666666724FC000000000000E03F4000000000000004000000000000005100000000000000244081E0000C3002E07A17AD46E338FCC
340
C90E73C08D47C695
340
C90E73C08D47C6EC
 94
        0
  0
ACAD_PROXY_OBJECT
  5
C90E73C08D47C6F4
330
C90E73C08D47C6DE
100
AcDbProxyObject
 90
      499
 91
      558
 71
    25
 97
       77
 70
     0
161
               823
310
608031703D0BD6A3719C7E999EA9A2A1AA24A7A7101E29A2A1AA24A7A72FA620A122A62FA324A929AA1F169E29A2A1AA24A7A72FA620A122A62FA620A9AA1F1353333333333B27E3FFFE01C00030C008840F000061801353333333333B27F1703D0BD6A3719C7E
340
C90E73C08D47C695
340
C90E73C08D47C6EC
 94
        0
  0
ACAD_PROXY_OBJECT
  5
C90E73C08D47C6F5
330
C90E73C08D47C6DE
100
AcDbProxyObject
 90
      499
 91
      559
 71
    25
 97
       77
 70
     0
161
               280
310
6082B8716D9CEF7C33F0A5723F0BD4A2F0FC295C8FC2F528BC3FA199999999999F99FC7F
 94
        0
  0
ACAD_PROXY_OBJECT
  5
C90E73C08D47C6F6
330
C90E73C08D47C6DE
100
AcDbProxyObject
 90
      499
 91
      560
 71
    25
 97
       77
 70
     0
161
                14
310
60A4
340
0
 94
        0
  0
ACAD_PROXY_OBJECT
  5
C90E73C08D47C6F7
330
C90E73C08D47C6DE
100
AcDbProxyObject
 90
      499
 91
      561
 71
    25
 97
       77
 70
     0
161
              6888
310
609084050BA4050AA405024050A54656D706C617465203140405013D3C696628657175616C28486F6C653A7461707065642C223022292C22252563222C486F6C653A6E6F6D696E616C2022202220696628657175616C28486F6C653A756E6974732C223122292C2278222C222D222920222022293E3C696628657175616C28
310
486F6C653A7461707065642C223022292C486F6C653A6469612C486F6C653A706974636864657363293E207B5C46414D4744543B787D203C696628657175616C28486F6C653A7465726D696E6174696F6E2C223022292C486F6C653A64657074682C225448525522293E5C507B5C46414D4744543B767D2525633C486F6C65
310
3A63746469613E207B5C46414D4744543B787D203C486F6C653A637464657074683E406901405034050A54656D706C6174652031405FE3D3C696628657175616C28486F6C653A7461707065642C223022292C22252563222C486F6C653A6E6F6D696E616C2022202220696628657175616C28486F6C653A756E6974732C223
310
122292C2278222C222D222920222022293E3C696628657175616C28486F6C653A7461707065642C223022292C486F6C653A6469612C486F6C653A706974636864657363293E207B5C46414D4744543B787D203C696628657175616C28486F6C653A7465726D696E6174696F6E2C223022292C486F6C653A64657074682C225
310
448525522293E5C507B5C46414D4744543B777D2525633C486F6C653A63746469613E2058203C486F6C653A6374616E676C653E252564406901405014050A54656D706C6174652031405CF3D3C696628657175616C28486F6C653A7461707065642C223022292C22252563222C486F6C653A6E6F6D696E616C202220222069
310
6628657175616C28486F6C653A756E6974732C223122292C2278222C222D222920222022293E3C696628657175616C28486F6C653A7461707065642C223022292C486F6C653A6469612C486F6C653A706974636864657363293E5C507B5C46414D4744543B787D203C696628657175616C28486F6C653A7465726D696E6174
310
696F6E2C223022292C486F6C653A64657074682C225448525522293E4069014051E4050A54656D706C61746520314050C3D3C535444503A444553433E40690140515AAAB845C0F42F5A8DC5F1F9703D0BD6A3717C7F8020000C3008000000C0004410335
360
C90E73C08D47C6FD
330
C90E73C08D47C6FD
360
C90E73C08D47C6FE
330
C90E73C08D47C6FE
360
C90E73C08D47C6FC
330
C90E73C08D47C6FC
360
C90E73C08D47C6FB
330
C90E73C08D47C6FB
 94
        0
  0
ACAD_PROXY_OBJECT
  5
C90E73C08D47C6FF
330
C90E73C08D47C6DE
100
AcDbProxyObject
 90
      499
 91
      563
 71
    25
 97
       77
 70
     0
161
                26
310
60902A8C
340
C90E73C08D47C6DF
 94
        0
  0
ACAD_PROXY_OBJECT
  5
C90E73C08D47C700
330
C90E73C08D47C6DE
100
AcDbProxyObject
 90
      499
 91
      564
 71
    25
 97
       77
 70
     0
161
               258
310
60902000000000000380FC000000000000E03F408F0F9023C3E40DB18CCCFFFF8C
340
C90E73C08D47C701
340
0
340
0
340
C90E73C08D47C702
340
C90E73C08D47C703
340
0
340
C90E73C08D47C704
340
C90E73C08D47C705
340
C90E73C08D47C70A
340
0
 94
        0
  0
ACAD_PROXY_OBJECT
  5
C90E73C08D47C70B
330
C90E73C08D47C6DE
100
AcDbProxyObject
 90
      499
 91
      565
 71
    25
 97
       77
 70
     0
161
             17490
310
6091F023FFFFFFFD010300002E07A17AD46E2F8FE00800030C01010300002E07A17AD46E2F8FE00800030C0005134C495354204F4620434F4F5244494E41544553015091D15395149050D3CB1153954B0C0B131254D50813D18810D3D3D491125390551154CB11D15395149055160B095CCB0A11D1539354D1C819D95B991A
310
5B5E880CCC0A78000C000000000000000000000000000000007B14AE47E17AA43F2E07A17AD46E2F8FE00800030C007B14AE47E17AA43F2E07A17AD46E2F8FE00800030C020143CF4F111959985D5B1D151A5D1B194F8050A484F4C45205441424C45014E51D15395149050D3CB1153954B0C0B1213D3114815105093114B1
310
1D15395149055160B095CCB0A11D1539354D1C819D95B991A5B5E880CCC4A78000C000000000000000000000000000000007B14AE47E17AA43F2E07A17AD46E2F8FE00800030C007B14AE47E17AA43F2E07A17AD46E2F8FE00800030C020143CF4F111959985D5B1D151A5D1B194F90C4410F4450240D04415014391244D15
310
4151241D144310D4400005064F524947494E014D11D15395149050D3CB1153954B0C0B13D49251D2538B11D15395149055160B095CCB0A11D1539354D1C819D95B991A5B5E880C4A400040410008850000A0C9EA4928E929C029A23A2A72A2920A1A79622A72A96181627A924A3A4A71623A2A72A2920AA2C1612B9961423A
310
2A726A9A39033B2B73234B6BD101894800080820010FA0001411213D3114053247454E545241434F2C454E552C302C484F4C452C47454E54524154582C25732C2847454E4D53472067656E64696D7A20322901538F4F12518A1254D093105392CA121BDB19525D195B4A4B13DC9A59DA5B8B08121BDB19525D195B4A4F8F12
310
518A1254D093105392CA121BDB19525D195B4A4B08888B08121BDB19525B99195E0A4F80404100088D0000A02B00297A3A2A72A2920A1A79622A72A9618162C1623A2A72A2920AA2C1612B9961423A2A726A9A39033B2B73234B6BD1019948000808000102A000140564052F47454E545241434F2C454E552C302C592C4745
310
4E54524154582C25732C2847454E4D53472067656E64696D7A20342900010100002074000280A900A5E8E8A9CA8A482869E588A9CAA586058A4588E8A9CA8A482A8B0584AE658508E8A9C9AA68E40CECADCC8D2DAF4406C52000202000041280005187B5C4653594D424F4C7C42307C49307C43327C50303B4A7D015191D15
310
395149050D3CB1153954B0C0B1ED71194D6535093D31F108C1F124C1F10CC9F140C0ED29F4B11D15395149055160B095CCB0A11D1539354D1C819D95B991A5B5E880DCA40004040C0082D0000A0892A88A9A0299A3A2A72A2920A1A79622A72A96181624AA22A69623A2A72A2920AA2C1612B9961423A2A726A9A39033B2B7
310
3234B6BD10189A148000808280101A00014152539111560053447454E545241434F2C454E552C302C494E4445582C47454E54524154582C25732C2847454E4D53472067656E64696D7A20313529000101050021D40002822427A62280A668E8A9CA8A482869E588A9CAA586058909E988A588E8A9CA8A482A8B0584AE65850
310
8E8A9C9AA68E40CECADCC8D2DAF440626C52000202080044A800050A484F4C4520494E444558014E51D15395149050D3CB1153954B0C0B1213D3114812539111560B11D15395149055160B095CCB0A11D1539354D1C819D95B991A5B5E880C4DCA4000404140089D0000A064A4A860298A3A2A72A2920A1A79622A72A96181
310
61292A19623A2A72A2920AA2C1612B9961423A2A726A9A39033B2B73234B6BD101C148000808080107A000140D455164053247454E545241434F2C454E552C302C5154592C47454E54524154582C25732C2847454E4D53472067656E64696D7A2031392900010106002294000285A222A9A1A924A82A24A7A700A748E8A9CA
310
8A482869E588A9CAA586058888AA686A492A0A8929E9C588E8A9CA8A482A8B0584AE658508E8A9C9AA68E40CECADCC8D2DAF440646052000200080043280005085354414E44415244014DD1D15395149050D3CB1153954B0C0B14D51053911054910B11D15395149055160B095CCB0A11D1539354D1C819D95B991A5B5E880
310
C8C4A4000400100086D0000A12AAA68AA44092A88A9A029C23A2A72A2920A1A79622A72A9618162AA9A2A91024AA22A69623A2A72A2920AA2C1612B9961423A2A726A9A39033B2B73234B6BD101919148000808280115A440019FFFFFFFE004D4CCCCCCCCCF49FCFFFFFFFF0326A6666666667A4FE7FFFFFFF809353333333
310
333D27F3FFFFFFFC049A9999999999E93F9FFFFFFFE044D4CCCCCCCCCF49FCFFFFFFFF0226A6666666667A4FE7FFFFFFF801353333333333B27F3FFFFFFFC009A9999999999E93F9FFFFFFFE004D4CCCCCCCCCF49FCFFFFFFFF0026A6666666667A4FE7FFFFFFF81B3FFFFFFFC0CB81E85EB51B8DE3F9FFFFFFFE060000000
310
0000000204FFFFFFFF0319D999999999819027FFFFFFF801353333333333D27F3FFFFFFFD100067FFFFFFF801353333333333D27F3FFFFFFFC0C9A9999999999E93F9FFFFFFFE064D4CCCCCCCCCF49FCFFFFFFFF0326A6666666667A4FE7FFFFFFF819353333333333D27F3FFFFFFFC0C9A9999999999E93F9FFFFFFFE004D
310
4CCCCCCCCCEC9FCFFFFFFFF0026A6666666667A4FE7FFFFFFF819353333333333D27F3FFFFFFFC009A9999999999E93F9FFFFFFFE06CFFFFFFFF032E07A17AD46E378FE7FFFFFFF81800000000000000813FFFFFFFC0C67666666666606409FFFFFFFE004D4CCCCCCCCCF49FCFFFFFFFF4111000000043C000001120000004
310
4C0000010441C0004011200000040C000401020001003FFFFFFFD0240400054E3D3C4946284953424C414E4B28486F6C654974656D292C4F726967696E2C20486F6C654974656D293E3C4946284953424C414E4B28486F6C654974656D292C22222C20486F6C65496E646578293E4111000000043C0000011200000044C000
310
0010300004111000000043C00000112000000454000000FFFFFFFF8C
340
0
340
0
340
0
340
0
340
C90E73C08D47C6EC
340
C90E73C08D47C6EC
 94
        0
  0
ACAD_PROXY_OBJECT
  5
C90E73C08D47C70C
330
C90E73C08D47C6DE
100
AcDbProxyObject
 90
      499
 91
      566
 71
    25
 97
       77
 70
     0
161
              5542
310
6099741105394D2506414E53495F4342905394D257D512551554D15414E53495F54525F5265766973696F6E6C697374614191143202831372E307832322E30696E63682941905394D257D0D1146202832382E307834302E30696E63682941905394D257D191142202831312E307831372E30696E63682941905394D257D091
310
144202832322E307833342E30696E63682941905394D257D111145202833342E307834342E30696E63682941905394D257D1510412028382E357831312E30696E63682941905394D257D0505439554C8151A5D1B1948109B1BD8DAD0A414E53495F544954555344D05B9CDA48151A5D1B1948109B1BD8DAC81110D0C414E53
310
495F5449544C45444344D05B9CDA48151A5D1B1948109B1BD8DAC81050D0C414E53495F5449544C45414344905B9CDA48151A5D1B1948109B1BD8DAC81050B414E53495F5449544C454144905B9CDA48151A5D1B1948109B1BD8DAC81110B414E53495F5449544C4544421125265766973696F6E6C69737420415F42525F45
310
505394D257D09497D4995D9A5CDA5BDB9B1A5CDD185125265766973696F6E6C69737420415F54525F45505394D257D51497D4995D9A5CDA5BDB9B1A5CDD185125265766973696F6E6C69737420445F42525F45505394D257D09497D4995D9A5CDA5BDB9B1A5CDD191125265766973696F6E6C69737420445F54525F4550539
310
4D257D51497D4995D9A5CDA5BDB9B1A5CDD191125265766973696F6E6C69737420415F424C5F45505394D257D09317D4995D9A5CDA5BDB9B1A5CDD185125265766973696F6E6C69737420415F544C5F45505394D257D51317D4995D9A5CDA5BDB9B1A5CDD185125265766973696F6E6C69737420445F424C5F45505394D257
310
D09317D4995D9A5CDA5BDB9B1A5CDD191125265766973696F6E6C69737420445F544C5F45505394D257D51317D4995D9A5CDA5BDB9B1A5CDD190
 94
        0
  0
ACAD_PROXY_OBJECT
  5
C90E73C08D47C6FD
330
0
100
AcDbProxyObject
 90
      499
 91
      562
 71
    25
 97
       77
 70
     0
161
              2224
310
60A014295195B5C1B185D19480C40405013D3C696628657175616C28486F6C653A7461707065642C223022292C22252563222C486F6C653A6E6F6D696E616C2022202220696628657175616C28486F6C653A756E6974732C223122292C2278222C222D222920222022293E3C696628657175616C28486F6C653A7461707065
310
642C223022292C486F6C653A6469612C486F6C653A706974636864657363293E207B5C46414D4744543B787D203C696628657175616C28486F6C653A7465726D696E6174696F6E2C223022292C486F6C653A64657074682C225448525522293E5C507B5C46414D4744543B767D2525633C486F6C653A63746469613E207B5C
310
46414D4744543B787D203C486F6C653A637464657074683E51
 94
        0
  0
ACAD_PROXY_OBJECT
  5
C90E73C08D47C6FE
330
0
100
AcDbProxyObject
 90
      499
 91
      562
 71
    25
 97
       77
 70
     0
161
              2160
310
60A014295195B5C1B185D19480C405FE3D3C696628657175616C28486F6C653A7461707065642C223022292C22252563222C486F6C653A6E6F6D696E616C2022202220696628657175616C28486F6C653A756E6974732C223122292C2278222C222D222920222022293E3C696628657175616C28486F6C653A746170706564
310
2C223022292C486F6C653A6469612C486F6C653A706974636864657363293E207B5C46414D4744543B787D203C696628657175616C28486F6C653A7465726D696E6174696F6E2C223022292C486F6C653A64657074682C225448525522293E5C507B5C46414D4744543B777D2525633C486F6C653A63746469613E2058203C
310
486F6C653A6374616E676C653E25256400
 94
        0
  0
ACAD_PROXY_OBJECT
  5
C90E73C08D47C6FC
330
0
100
AcDbProxyObject
 90
      499
 91
      562
 71
    25
 97
       77
 70
     0
161
              1784
310
60A014295195B5C1B185D19480C405CF3D3C696628657175616C28486F6C653A7461707065642C223022292C22252563222C486F6C653A6E6F6D696E616C2022202220696628657175616C28486F6C653A756E6974732C223122292C2278222C222D222920222022293E3C696628657175616C28486F6C653A746170706564
310
2C223022292C486F6C653A6469612C486F6C653A706974636864657363293E5C507B5C46414D4744543B787D203C696628657175616C28486F6C653A7465726D696E6174696F6E2C223022292C486F6C653A64657074682C225448525522293EEE
 94
        0
  0
ACAD_PROXY_OBJECT
  5
C90E73C08D47C6FB
330
0
100
AcDbProxyObject
 90
      499
 91
      562
 71
    25
 97
       77
 70
     0
161
               224
310
60A014295195B5C1B185D19480C4050C3D3C535444503A444553433E00
 94
        0
  0
ENDSEC
  0
SECTION
  2
ACDSDATA
 70
     2
 71
     8
  0
ACDSSCHEMA
 90
        0
  1
AcDb_Thumbnail_Schema
  2
AcDbDs::ID
280
    10
 91
        8
  2
Thumbnail_Data
280
    15
 91
        0
101
ACDSRECORD
 95
        0
 90
        1
  2
AcDbDs::TreatedAsObjectData
280
     1
291
     1
101
ACDSRECORD
 95
        0
 90
        2
  2
AcDbDs::Legacy
280
     1
291
     1
101
ACDSRECORD
  1
AcDbDs::ID
 90
        3
  2
AcDs:Indexable
280
     1
291
     1
101
ACDSRECORD
  1
AcDbDs::ID
 90
        4
  2
AcDbDs::HandleAttribute
280
     7
282
     1
  0
ACDSSCHEMA
 90
        1
  1
AcDbDs::TreatedAsObjectDataSchema
  2
AcDbDs::TreatedAsObjectData
280
     1
 91
        0
  0
ACDSSCHEMA
 90
        2
  1
AcDbDs::LegacySchema
  2
AcDbDs::Legacy
280
     1
 91
        0
  0
ACDSSCHEMA
 90
        3
  1
AcDbDs::IndexedPropertySchema
  2
AcDs:Indexable
280
     1
 91
        0
  0
ACDSSCHEMA
 90
        4
  1
AcDbDs::HandleAttributeSchema
  2
AcDbDs::HandleAttribute
280
     7
 91
        1
284
     1
  0
ACDSRECORD
 90
        0
  2
AcDbDs::ID
280
    10
320
C90E73C08D47C63A
  2
Thumbnail_Data
280
    15
 94
     1650
310
89504E470D0A1A0A0000000D49484452000001000000006F08030000003479EE6F00000300504C5445212830FFFFFF2128300000000000000000000000000000000000000000000000000000330000660000990000CC0000FF0033000033330033660033990033CC0033FF0066000066330066660066990066CC0066FF0099
310
000099330099660099990099CC0099FF00CC0000CC3300CC6600CC9900CCCC00CCFF00FF0000FF3300FF6600FF9900FFCC00FFFF3300003300333300663300993300CC3300FF3333003333333333663333993333CC3333FF3366003366333366663366993366CC3366FF3399003399333399663399993399CC3399FF33CC00
310
33CC3333CC6633CC9933CCCC33CCFF33FF0033FF3333FF6633FF9933FFCC33FFFF6600006600336600666600996600CC6600FF6633006633336633666633996633CC6633FF6666006666336666666666996666CC6666FF6699006699336699666699996699CC6699FF66CC0066CC3366CC6666CC9966CCCC66CCFF66FF0066
310
FF3366FF6666FF9966FFCC66FFFF9900009900339900669900999900CC9900FF9933009933339933669933999933CC9933FF9966009966339966669966999966CC9966FF9999009999339999669999999999CC9999FF99CC0099CC3399CC6699CC9999CCCC99CCFF99FF0099FF3399FF6699FF9999FFCC99FFFFCC0000CC00
310
33CC0066CC0099CC00CCCC00FFCC3300CC3333CC3366CC3399CC33CCCC33FFCC6600CC6633CC6666CC6699CC66CCCC66FFCC9900CC9933CC9966CC9999CC99CCCC99FFCCCC00CCCC33CCCC66CCCC99CCCCCCCCCCFFCCFF00CCFF33CCFF66CCFF99CCFFCCCCFFFFFF0000FF0033FF0066FF0099FF00CCFF00FFFF3300FF3333
310
FF3366FF3399FF33CCFF33FFFF6600FF6633FF6666FF6699FF66CCFF66FFFF9900FF9933FF9966FF9999FF99CCFF99FFFFCC00FFCC33FFCC66FFCC99FFCCCCFFCCFFFFFF00FFFF33FFFF66FFFF99FFFFCCFFFFFF0000000D0D0D1A1A1A2828283535354343435050505D5D5D6B6B6B787878868686939393A1A1A1AEAEAEBB
310
BBBBC9C9C9D6D6D6E4E4E4F1F1F1FFFFFF0000000000000000000000000000000000000000000000000000000000002E4550F10000032D4944415478DAED9D4B72C3200C40751C6DB8FF01BACE0D388436D9D7018241C63676D2CEE8A34C6C4F6B3CC3AB240B212880CB6DF9F913910440CC431DC07F00C0F789B0FB810100
310
14970F0E84D08806C4E5533580565D005B00526F5FC7E6CA019832011C1C4C0088E0001C4076FAF8F6FDEB95710088D635C00134F73FF744B11344F300C008009A013084A0C107A4711FCE85C21A0144C81A601E001F043313781E8A7800B823060010A5032125E9132278DBB1C80350A5B9830198780B8A0450FBFD3A10C5
310
46C02280A32667DD17E90457025B1B300180B9007B1A5008148748C76D5486C2AD0A1805306B010634E00C0043A023239409048010265A2905903AEF00C254BB83EE3B00C900163710E8BB0F75003A4DC0016804301F07E8049043C02FB800F56301CD1A30351A7400DA017C6C031273827D46AC4B0B5B00D065858FE7050C
310
00606971230016551FF9003B5363B177823B93A3CA01A49210EC94DF8A06AC2532B5282A9F4C154A36051255EF1D80191328455223133001A0D6088D9C201A011061582064A3563803D876D598068C0100380007600C00990340AFA160AC8592CDA088CC2C9D6D84FEE2A19200800398530352E40358CFA632C3A39B48AC13
310
E4329319A76DB3A84303A0564D9E68C08E558806809701A02A136071C0A1FDEFCEA20804B06E19324580874B2C832CDE0470488046FDD762027CEB98343DF4E2105669AED31472BE67B4C04A1E007C27C44B3A304F92314F48BDFFA3022EB7C827B11A50FE7235173C024023006CC325140FA0D380D099007113C8005A0DD0
310
042049D80710EA0B400780EC03EA9A717A6C0704CC04D2EF1E545799A36C1FC00150B1F3DD3800CA12331D00F25AD966D780F940A8DF6CA03490A80175CFA0B462FE2C146E01747B8DC83581FA5D01CCA4031A00E9AB054049121F4BDA76440F80CE04EE00906E029D37BB02A06BABE535780380AE38C01E00160A5F00A073
310
2C600F00CB07E02C002DF9009ED8B9A2012A32422CEABB160780C29CE05B0B8E01EC6EBA2456039055099E48732F0AD780B547D8BC146086C10897D707380007E000C401281B69C1E70B672503B8BB6AB2B6950FE09606D46DD8DC07380007E000A401B0FEBFC654C82FEC4C0CF3AB504AB10000000049454E44AE426082
  0
ENDSEC
  0
EOF
